  0
SECTION
  2
HEADER
  9
$ACADVER
  1
AC1027
  9
$ACADMAINTVER
 70
   125
  9
$DWGCODEPAGE
  3
ANSI_1252
  9
$LASTSAVEDBY
  1
tscadd3
  9
$REQUIREDVERSIONS
160
                 0
  9
$INSBASE
 10
0.0
 20
0.0000000000001847
 30
0.0
  9
$EXTMIN
 10
-0.0000000000005684
 20
0.0
 30
0.0
  9
$EXTMAX
 10
419.9999999999997
 20
297.0000000000021
 30
0.0
  9
$LIMMIN
 10
0.0
 20
0.0
  9
$LIMMAX
 10
420.0
 20
297.0
  9
$ORTHOMODE
 70
     0
  9
$REGENMODE
 70
     1
  9
$FILLMODE
 70
     1
  9
$QTEXTMODE
 70
     0
  9
$MIRRTEXT
 70
     0
  9
$LTSCALE
 40
1.0
  9
$ATTMODE
 70
     1
  9
$TEXTSIZE
 40
0.05
  9
$TRACEWID
 40
1.0
  9
$TEXTSTYLE
  7
ARIAL
  9
$CLAYER
  8
001_PLANKOPF_KGxxx
  9
$CELTYPE
  6
ByLayer
  9
$CECOLOR
 62
     7
  9
$CELTSCALE
 40
1.0
  9
$DISPSILH
 70
     0
  9
$DIMSCALE
 40
1.0
  9
$DIMASZ
 40
2.5
  9
$DIMEXO
 40
0.625
  9
$DIMDLI
 40
3.75
  9
$DIMRND
 40
0.0
  9
$DIMDLE
 40
0.0
  9
$DIMEXE
 40
1.25
  9
$DIMTP
 40
0.0
  9
$DIMTM
 40
0.0
  9
$DIMTXT
 40
2.5
  9
$DIMCEN
 40
2.5
  9
$DIMTSZ
 40
0.0
  9
$DIMTOL
 70
     0
  9
$DIMLIM
 70
     0
  9
$DIMTIH
 70
     0
  9
$DIMTOH
 70
     0
  9
$DIMSE1
 70
     0
  9
$DIMSE2
 70
     0
  9
$DIMTAD
 70
     1
  9
$DIMZIN
 70
     8
  9
$DIMBLK
  1

  9
$DIMASO
 70
     1
  9
$DIMSHO
 70
     1
  9
$DIMPOST
  1

  9
$DIMAPOST
  1

  9
$DIMALT
 70
     0
  9
$DIMALTD
 70
     3
  9
$DIMALTF
 40
0.03937007874016
  9
$DIMLFAC
 40
1.0
  9
$DIMTOFL
 70
     1
  9
$DIMTVP
 40
0.0
  9
$DIMTIX
 70
     0
  9
$DIMSOXD
 70
     0
  9
$DIMSAH
 70
     0
  9
$DIMBLK1
  1

  9
$DIMBLK2
  1

  9
$DIMSTYLE
  2
ISO-25
  9
$DIMCLRD
 70
     0
  9
$DIMCLRE
 70
     0
  9
$DIMCLRT
 70
     0
  9
$DIMTFAC
 40
1.0
  9
$DIMGAP
 40
0.625
  9
$DIMJUST
 70
     0
  9
$DIMSD1
 70
     0
  9
$DIMSD2
 70
     0
  9
$DIMTOLJ
 70
     0
  9
$DIMTZIN
 70
     8
  9
$DIMALTZ
 70
     0
  9
$DIMALTTZ
 70
     0
  9
$DIMUPT
 70
     0
  9
$DIMDEC
 70
     2
  9
$DIMTDEC
 70
     2
  9
$DIMALTU
 70
     2
  9
$DIMALTTD
 70
     3
  9
$DIMTXSTY
  7
Standard
  9
$DIMAUNIT
 70
     0
  9
$DIMADEC
 70
     0
  9
$DIMALTRND
 40
0.0
  9
$DIMAZIN
 70
     0
  9
$DIMDSEP
 70
    44
  9
$DIMATFIT
 70
     3
  9
$DIMFRAC
 70
     0
  9
$DIMLDRBLK
  1

  9
$DIMLUNIT
 70
     2
  9
$DIMLWD
 70
    -2
  9
$DIMLWE
 70
    -2
  9
$DIMTMOVE
 70
     0
  9
$DIMFXL
 40
1.0
  9
$DIMFXLON
 70
     0
  9
$DIMJOGANG
 40
0.7853981633974483
  9
$DIMTFILL
 70
     0
  9
$DIMTFILLCLR
 70
     0
  9
$DIMARCSYM
 70
     0
  9
$DIMLTYPE
  6

  9
$DIMLTEX1
  6

  9
$DIMLTEX2
  6

  9
$DIMTXTDIRECTION
 70
     0
  9
$LUNITS
 70
     2
  9
$LUPREC
 70
     4
  9
$SKETCHINC
 40
1.0
  9
$FILLETRAD
 40
0.0
  9
$AUNITS
 70
     0
  9
$AUPREC
 70
     0
  9
$MENU
  1
.
  9
$ELEVATION
 40
0.0
  9
$PELEVATION
 40
0.0
  9
$THICKNESS
 40
0.0
  9
$LIMCHECK
 70
     0
  9
$CHAMFERA
 40
10.0
  9
$CHAMFERB
 40
10.0
  9
$CHAMFERC
 40
20.0
  9
$CHAMFERD
 40
0.0
  9
$SKPOLY
 70
     0
  9
$TDCREATE
 40
2453838.290370370
  9
$TDUCREATE
 40
2453838.207041713
  9
$TDUPDATE
 40
2457903.474699074
  9
$TDUUPDATE
 40
2457903.391365741
  9
$TDINDWG
 40
0.3419869676
  9
$TDUSRTIMER
 40
0.3419862037
  9
$USRTIMER
 70
     1
  9
$ANGBASE
 50
0.0
  9
$ANGDIR
 70
     0
  9
$PDMODE
 70
     0
  9
$PDSIZE
 40
0.0
  9
$PLINEWID
 40
0.0
  9
$SPLFRAME
 70
     0
  9
$SPLINETYPE
 70
     6
  9
$SPLINESEGS
 70
     8
  9
$HANDSEED
  5
1185
  9
$SURFTAB1
 70
     6
  9
$SURFTAB2
 70
     6
  9
$SURFTYPE
 70
     6
  9
$SURFU
 70
     6
  9
$SURFV
 70
     6
  9
$UCSBASE
  2

  9
$UCSNAME
  2

  9
$UCSORG
 10
0.0
 20
0.0
 30
0.0
  9
$UCSXDIR
 10
1.0
 20
0.0
 30
0.0
  9
$UCSYDIR
 10
0.0
 20
1.0
 30
0.0
  9
$UCSORTHOREF
  2

  9
$UCSORTHOVIEW
 70
     0
  9
$UCSORGTOP
 10
0.0
 20
0.0
 30
0.0
  9
$UCSORGBOTTOM
 10
0.0
 20
0.0
 30
0.0
  9
$UCSORGLEFT
 10
0.0
 20
0.0
 30
0.0
  9
$UCSORGRIGHT
 10
0.0
 20
0.0
 30
0.0
  9
$UCSORGFRONT
 10
0.0
 20
0.0
 30
0.0
  9
$UCSORGBACK
 10
0.0
 20
0.0
 30
0.0
  9
$PUCSBASE
  2

  9
$PUCSNAME
  2

  9
$PUCSORG
 10
0.0
 20
0.0
 30
0.0
  9
$PUCSXDIR
 10
1.0
 20
0.0
 30
0.0
  9
$PUCSYDIR
 10
0.0
 20
1.0
 30
0.0
  9
$PUCSORTHOREF
  2

  9
$PUCSORTHOVIEW
 70
     0
  9
$PUCSORGTOP
 10
0.0
 20
0.0
 30
0.0
  9
$PUCSORGBOTTOM
 10
0.0
 20
0.0
 30
0.0
  9
$PUCSORGLEFT
 10
0.0
 20
0.0
 30
0.0
  9
$PUCSORGRIGHT
 10
0.0
 20
0.0
 30
0.0
  9
$PUCSORGFRONT
 10
0.0
 20
0.0
 30
0.0
  9
$PUCSORGBACK
 10
0.0
 20
0.0
 30
0.0
  9
$USERI1
 70
     0
  9
$USERI2
 70
     0
  9
$USERI3
 70
     0
  9
$USERI4
 70
     0
  9
$USERI5
 70
     0
  9
$USERR1
 40
0.0
  9
$USERR2
 40
0.0
  9
$USERR3
 40
0.0
  9
$USERR4
 40
0.0
  9
$USERR5
 40
0.0
  9
$WORLDVIEW
 70
     1
  9
$SHADEDGE
 70
     3
  9
$SHADEDIF
 70
    70
  9
$TILEMODE
 70
     1
  9
$MAXACTVP
 70
    64
  9
$PINSBASE
 10
0.0
 20
0.0
 30
0.0
  9
$PLIMCHECK
 70
     0
  9
$PEXTMIN
 10
-10.10390662016857
 20
-5.389080130927936
 30
-0.0000000000112498
  9
$PEXTMAX
 10
211.896772874757
 20
296.3995645548904
 30
0.0000000000002956
  9
$PLIMMIN
 10
-6.349999904632571
 20
-6.349999904632571
  9
$PLIMMAX
 10
209.5499939918519
 20
273.0499939918519
  9
$UNITMODE
 70
     0
  9
$VISRETAIN
 70
     1
  9
$PLINEGEN
 70
     0
  9
$PSLTSCALE
 70
     1
  9
$TREEDEPTH
 70
  3020
  9
$CMLSTYLE
  2
Standard
  9
$CMLJUST
 70
     0
  9
$CMLSCALE
 40
20.0
  9
$PROXYGRAPHICS
 70
     1
  9
$MEASUREMENT
 70
     1
  9
$CELWEIGHT
370
    -1
  9
$ENDCAPS
280
     0
  9
$JOINSTYLE
280
     0
  9
$LWDISPLAY
290
     0
  9
$INSUNITS
 70
     4
  9
$HYPERLINKBASE
  1

  9
$STYLESHEET
  1

  9
$XEDIT
290
     1
  9
$CEPSNTYPE
380
     0
  9
$PSTYLEMODE
290
     1
  9
$FINGERPRINTGUID
  2
{FDEAD578-A652-11D2-9A35-0060089B3A3F}
  9
$VERSIONGUID
  2
{1F293519-2C9C-8047-9F3D-2D852C767E37}
  9
$EXTNAMES
290
     1
  9
$PSVPSCALE
 40
0.0
  9
$OLESTARTUP
290
     0
  9
$SORTENTS
280
   127
  9
$INDEXCTL
280
     0
  9
$HIDETEXT
280
     1
  9
$XCLIPFRAME
280
     0
  9
$HALOGAP
280
     0
  9
$OBSCOLOR
 70
   257
  9
$OBSLTYPE
280
     0
  9
$INTERSECTIONDISPLAY
280
     0
  9
$INTERSECTIONCOLOR
 70
   257
  9
$DIMASSOC
280
     2
  9
$PROJECTNAME
  1

  9
$CAMERADISPLAY
290
     0
  9
$LENSLENGTH
 40
50.0
  9
$CAMERAHEIGHT
 40
0.0
  9
$STEPSPERSEC
 40
2.0
  9
$STEPSIZE
 40
6.0
  9
$3DDWFPREC
 40
2.0
  9
$PSOLWIDTH
 40
0.25
  9
$PSOLHEIGHT
 40
4.0
  9
$LOFTANG1
 40
1.570796326794896
  9
$LOFTANG2
 40
1.570796326794896
  9
$LOFTMAG1
 40
0.0
  9
$LOFTMAG2
 40
0.0
  9
$LOFTPARAM
 70
     7
  9
$LOFTNORMALS
280
     1
  9
$LATITUDE
 40
37.795
  9
$LONGITUDE
 40
-122.394
  9
$NORTHDIRECTION
 40
0.0
  9
$TIMEZONE
 70
 -8000
  9
$LIGHTGLYPHDISPLAY
280
     1
  9
$TILEMODELIGHTSYNCH
280
     1
  9
$CMATERIAL
347
4F0
  9
$SOLIDHIST
280
     0
  9
$SHOWHIST
280
     1
  9
$DWFFRAME
280
     2
  9
$DGNFRAME
280
     0
  9
$REALWORLDSCALE
290
     1
  9
$INTERFERECOLOR
 62
     1
  9
$INTERFEREOBJVS
345
4FD
  9
$INTERFEREVPVS
346
FFB
  9
$CSHADOW
280
     0
  9
$SHADOWPLANELOCATION
 40
0.0
  0
ENDSEC
  0
SECTION
  2
CLASSES
  0
CLASS
  1
ACDBDICTIONARYWDFLT
  2
AcDbDictionaryWithDefault
  3
ObjectDBX Classes
 90
        0
 91
        1
280
     0
281
     0
  0
CLASS
  1
DICTIONARYVAR
  2
AcDbDictionaryVar
  3
ObjectDBX Classes
 90
        0
 91
       33
280
     0
281
     0
  0
CLASS
  1
SORTENTSTABLE
  2
AcDbSortentsTable
  3
ObjectDBX Classes
 90
        0
 91
        1
280
     0
281
     0
  0
CLASS
  1
ACDBPLACEHOLDER
  2
AcDbPlaceHolder
  3
ObjectDBX Classes
 90
        0
 91
        1
280
     0
281
     0
  0
CLASS
  1
LAYOUT
  2
AcDbLayout
  3
ObjectDBX Classes
 90
        0
 91
        4
280
     0
281
     0
  0
CLASS
  1
MATERIAL
  2
AcDbMaterial
  3
ObjectDBX Classes
 90
     1153
 91
        3
280
     0
281
     0
  0
CLASS
  1
VISUALSTYLE
  2
AcDbVisualStyle
  3
ObjectDBX Classes
 90
     4095
 91
       26
280
     0
281
     0
  0
CLASS
  1
TABLESTYLE
  2
AcDbTableStyle
  3
ObjectDBX Classes
 90
     4095
 91
        2
280
     0
281
     0
  0
CLASS
  1
DMMAPMANAGER
  2
AcMapDMMapManager
  3
AcMapDisplayManagement
 90
     1024
 91
        2
280
     0
281
     0
  0
CLASS
  1
DMSTYLELIBRARY
  2
AcMapDMStyleLibrary
  3
AcMapDisplayManagement
 90
     1024
 91
        2
280
     0
281
     0
  0
CLASS
  1
DMSTYLECATEGORY
  2
AcMapDMStyleCategory
  3
AcMapDisplayManagement
 90
     1024
 91
        2
280
     0
281
     0
  0
CLASS
  1
DATATABLE
  2
AcDbDataTable
  3
ObjectDBX Classes
 90
        0
 91
        1
280
     0
281
     0
  0
CLASS
  1
DMMAP
  2
AcMapDMMap
  3
AcMapDisplayManagement
 90
     1024
 91
        2
280
     0
281
     0
  0
CLASS
  1
DMBASEELEMENT
  2
AcMapDMBaseElement
  3
AcMapDisplayManagement
 90
     1024
 91
        2
280
     0
281
     0
  0
CLASS
  1
DMDEFAULTSTYLE
  2
AcMapDMDefaultStyle
  3
AcMapDisplayManagement
 90
     1024
 91
        2
280
     0
281
     0
  0
CLASS
  1
DMSTYLEREFERENCE
  2
AcMapDMStyleReference
  3
AcMapDisplayManagement
 90
     1024
 91
        2
280
     0
281
     0
  0
CLASS
  1
DMSURROGATESTYLESETS
  2
AcMapDMSurrogateStyleSets
  3
AcMapDisplayManagement
 90
     1153
 91
        2
280
     0
281
     0
  0
CLASS
  1
DMSTYLIZEDENTITIESTABLE
  2
AcMapDMStylizedEntitiesTable
  3
AcMapDisplayManagement
 90
     1024
 91
        2
280
     0
281
     0
  0
CLASS
  1
MAPGWSUNDOOBJECT
  2
AcMapGWSUndoRecorder
  3
AcMapFeatureSourceManager
 90
     1025
 91
        0
280
     0
281
     0
  0
CLASS
  1
SCALE
  2
AcDbScale
  3
ObjectDBX Classes
 90
     1153
 91
       17
280
     0
281
     0
  0
CLASS
  1
MLEADERSTYLE
  2
AcDbMLeaderStyle
  3
ACDB_MLEADERSTYLE_CLASS
 90
     4095
 91
        1
280
     0
281
     0
  0
CLASS
  1
RASTERVARIABLES
  2
AcDbRasterVariables
  3
ISM
 90
        0
 91
        1
280
     0
281
     0
  0
CLASS
  1
IMAGEDEF
  2
AcDbRasterImageDef
  3
ISM
 90
        0
 91
        0
280
     0
281
     0
  0
CLASS
  1
IMAGEDEF_REACTOR
  2
AcDbRasterImageDefReactor
  3
ISM
 90
        1
 91
        0
280
     0
281
     0
  0
CLASS
  1
IMAGE
  2
AcDbRasterImage
  3
ISM
 90
     2175
 91
        0
280
     0
281
     1
  0
CLASS
  1
CELLSTYLEMAP
  2
AcDbCellStyleMap
  3
ObjectDBX Classes
 90
     1152
 91
        4
280
     0
281
     0
  0
CLASS
  1
EXACXREFPANELOBJECT
  2
ExAcXREFPanelObject
  3
EXAC_ESW
 90
     1025
 91
        0
280
     0
281
     0
  0
CLASS
  1
NPOCOLLECTION
  2
AcDbImpNonPersistentObjectsCollection
  3
ObjectDBX Classes
 90
     1153
 91
        0
280
     0
281
     0
  0
CLASS
  1
FIELD
  2
AcDbField
  3
ObjectDBX Classes
 90
     1152
 91
        4
280
     0
281
     0
  0
CLASS
  1
FIELDLIST
  2
AcDbFieldList
  3
ObjectDBX Classes
 90
     1152
 91
        1
280
     0
281
     0
  0
CLASS
  1
ACDBSECTIONVIEWSTYLE
  2
AcDbSectionViewStyle
  3
ObjectDBX Classes
 90
     1025
 91
        1
280
     0
281
     0
  0
CLASS
  1
ACDBDETAILVIEWSTYLE
  2
AcDbDetailViewStyle
  3
ObjectDBX Classes
 90
     1025
 91
        1
280
     0
281
     0
  0
ENDSEC
  0
SECTION
  2
TABLES
  0
TABLE
  2
VPORT
  5
8
102
{ACAD_XDICTIONARY
360
50B
102
}
330
0
100
AcDbSymbolTable
 70
     1
1001
ACAD
1000
DbSaveVer
1071
        8
  0
VPORT
  5
4D1
330
8
100
AcDbSymbolTableRecord
100
AcDbViewportTableRecord
  2
*Active
 70
     0
 10
0.0
 20
0.0
 11
1.0
 21
1.0
 12
167.9455947762617
 22
303.7259420724617
 13
0.0
 23
0.0
 14
10.0
 24
10.0
 15
10.0
 25
10.0
 16
0.0
 26
0.0
 36
1.0
 17
0.0
 27
0.0
 37
0.0
 40
580.9204878658281
 41
1.650065530799475
 42
50.0
 43
0.0
 44
0.0
 50
0.0
 51
0.0
 71
     0
 72
  1000
 73
     1
 74
     3
 75
     0
 76
     0
 77
     0
 78
     0
281
     0
 65
     1
110
0.0
120
0.0
130
0.0
111
1.0
121
0.0
131
0.0
112
0.0
122
1.0
132
0.0
 79
     0
146
0.0
348
4F9
 60
     3
 61
     5
292
     1
282
     1
141
0.0
142
0.0
 63
   250
421
  3355443
1001
ACAD_NAV_VCDISPLAY
1070
     3
  0
ENDTAB
  0
TABLE
  2
LTYPE
  5
5
330
0
100
AcDbSymbolTable
 70
     3
  0
LTYPE
  5
14
330
5
100
AcDbSymbolTableRecord
100
AcDbLinetypeTableRecord
  2
ByBlock
 70
     0
  3

 72
    65
 73
     0
 40
0.0
  0
LTYPE
  5
15
330
5
100
AcDbSymbolTableRecord
100
AcDbLinetypeTableRecord
  2
ByLayer
 70
     0
  3

 72
    65
 73
     0
 40
0.0
  0
LTYPE
  5
16
330
5
100
AcDbSymbolTableRecord
100
AcDbLinetypeTableRecord
  2
Continuous
 70
     0
  3
Solid line
 72
    65
 73
     0
 40
0.0
  0
LTYPE
  5
8A
330
5
100
AcDbSymbolTableRecord
100
AcDbLinetypeTableRecord
  2
AUSGEZOGEN
 70
     0
  3
durchgezogene Linie
 72
    65
 73
     0
 40
0.0
  0
ENDTAB
  0
TABLE
  2
LAYER
  5
2
102
{ACAD_XDICTIONARY
360
73E
102
}
330
0
100
AcDbSymbolTable
 70
     2
  0
LAYER
  5
10
102
{ACAD_XDICTIONARY
360
79B
102
}
330
2
100
AcDbSymbolTableRecord
100
AcDbLayerTableRecord
  2
0
 70
     0
 62
     7
  6
Continuous
370
    -3
390
F
347
4F2
348
0
  0
LAYER
  5
8D
102
{ACAD_XDICTIONARY
360
79D
102
}
330
2
100
AcDbSymbolTableRecord
100
AcDbLayerTableRecord
  2
001_PLANKOPF_KGxxx
 70
     0
 62
     7
  6
Continuous
370
    25
390
F
347
4F2
348
0
  0
ENDTAB
  0
TABLE
  2
STYLE
  5
3
330
0
100
AcDbSymbolTable
 70
     3
  0
STYLE
  5
11
330
3
100
AcDbSymbolTableRecord
100
AcDbTextStyleTableRecord
  2
Standard
 70
     0
 40
0.0
 41
1.0
 50
0.0
 71
     0
 42
2.5
  3
txt
  4

  0
STYLE
  5
8F
330
3
100
AcDbSymbolTableRecord
100
AcDbTextStyleTableRecord
  2
ARIAL
 70
     0
 40
0.0
 41
1.0
 50
0.0
 71
     0
 42
0.05
  3
arial.ttf
  4

1001
ACAD
1000
Arial
1071
       34
  0
STYLE
  5
A5A
330
3
100
AcDbSymbolTableRecord
100
AcDbTextStyleTableRecord
  2
Arial_schmal
 70
     0
 40
0.0
 41
0.5
 50
0.0
 71
     0
 42
0.25
  3
arial.ttf
  4

1001
ACAD
1000
Arial
1071
       34
  0
ENDTAB
  0
TABLE
  2
VIEW
  5
6
330
0
100
AcDbSymbolTable
 70
     0
  0
ENDTAB
  0
TABLE
  2
UCS
  5
7
330
0
100
AcDbSymbolTable
 70
     0
  0
ENDTAB
  0
TABLE
  2
APPID
  5
9
330
0
100
AcDbSymbolTable
 70
     9
  0
APPID
  5
12
330
9
100
AcDbSymbolTableRecord
100
AcDbRegAppTableRecord
  2
ACAD
 70
     0
  0
APPID
  5
91
330
9
100
AcDbSymbolTableRecord
100
AcDbRegAppTableRecord
  2
ADE
 70
     0
  0
APPID
  5
24D
330
9
100
AcDbSymbolTableRecord
100
AcDbRegAppTableRecord
  2
DCO15
 70
     0
  0
APPID
  5
5B8
330
9
100
AcDbSymbolTableRecord
100
AcDbRegAppTableRecord
  2
AcMapDMDisplayStyleRegapp
 70
     0
  0
APPID
  5
5C1
330
9
100
AcDbSymbolTableRecord
100
AcDbRegAppTableRecord
  2
MapGWS
 70
     0
  0
APPID
  5
843
330
9
100
AcDbSymbolTableRecord
100
AcDbRegAppTableRecord
  2
ACAD_MLEADERVER
 70
     0
  0
APPID
  5
84B
330
9
100
AcDbSymbolTableRecord
100
AcDbRegAppTableRecord
  2
ACAD_EXEMPT_FROM_CAD_STANDARDS
 70
     0
  0
APPID
  5
B6F
330
9
100
AcDbSymbolTableRecord
100
AcDbRegAppTableRecord
  2
ACAD_PSEXT
 70
     0
  0
APPID
  5
100C
330
9
100
AcDbSymbolTableRecord
100
AcDbRegAppTableRecord
  2
ACAD_NAV_VCDISPLAY
 70
     0
  0
ENDTAB
  0
TABLE
  2
DIMSTYLE
  5
A
330
0
100
AcDbSymbolTable
 70
     2
100
AcDbDimStyleTable
 71
     1
340
27
  0
DIMSTYLE
105
27
330
A
100
AcDbSymbolTableRecord
100
AcDbDimStyleTableRecord
  2
ISO-25
 70
     0
 41
2.5
 42
0.625
 43
3.75
 44
1.25
 73
     0
 74
     0
 77
     1
 78
     8
140
2.5
141
2.5
143
0.03937007874016
147
0.625
171
     3
172
     1
271
     2
272
     2
274
     3
278
    44
283
     0
284
     8
340
11
  0
DIMSTYLE
105
A5B
330
A
100
AcDbSymbolTableRecord
100
AcDbDimStyleTableRecord
  2
SCHRÄGAUSS
 70
     0
 41
0.0175
 42
0.1
 43
7.0
 44
0.0
 45
0.01
 47
102033525.0
 48
1.0
 73
     0
 74
     0
 75
     1
 76
     1
 77
     1
140
0.35
141
0.125
147
0.063
171
     0
172
     1
173
     1
176
     1
177
     1
178
     2
271
     2
272
     2
274
     0
289
     2
340
A5A
341
A48
343
A48
344
A4F
  0
ENDTAB
  0
TABLE
  2
BLOCK_RECORD
  5
1
330
0
100
AcDbSymbolTable
 70
     4
  0
BLOCK_RECORD
  5
1F
102
{ACAD_XDICTIONARY
360
7B7
102
}
330
1
100
AcDbSymbolTableRecord
100
AcDbBlockTableRecord
  2
*Model_Space
340
22
 70
     0
280
     1
281
     0
  0
BLOCK_RECORD
  5
50
330
1
100
AcDbSymbolTableRecord
100
AcDbBlockTableRecord
  2
*Paper_Space
340
51
 70
     0
280
     1
281
     0
  0
BLOCK_RECORD
  5
55
330
1
100
AcDbSymbolTableRecord
100
AcDbBlockTableRecord
  2
*Paper_Space0
340
56
 70
     0
280
     1
281
     0
  0
BLOCK_RECORD
  5
4A8
330
1
100
AcDbSymbolTableRecord
100
AcDbBlockTableRecord
  2
*Paper_Space1
340
4A9
 70
     0
280
     1
281
     0
  0
BLOCK_RECORD
  5
A48
330
1
100
AcDbSymbolTableRecord
100
AcDbBlockTableRecord
  2
AUSSTRICH1
340
0
 70
     0
280
     1
281
     0
  0
BLOCK_RECORD
  5
A4F
330
1
100
AcDbSymbolTableRecord
100
AcDbBlockTableRecord
  2
AUSSTRICH2
340
0
 70
     0
280
     1
281
     0
  0
ENDTAB
  0
ENDSEC
  0
SECTION
  2
BLOCKS
  0
BLOCK
  5
20
330
1F
100
AcDbEntity
  8
0
100
AcDbBlockBegin
  2
*Model_Space
 70
     0
 10
0.0
 20
0.0
 30
0.0
  3
*Model_Space
  1

  0
ENDBLK
  5
21
330
1F
100
AcDbEntity
  8
0
100
AcDbBlockEnd
  0
BLOCK
  5
52
330
50
100
AcDbEntity
 67
     1
  8
0
100
AcDbBlockBegin
  2
*Paper_Space
 70
     0
 10
0.0
 20
0.0
 30
0.0
  3
*Paper_Space
  1

  0
ENDBLK
  5
53
330
50
100
AcDbEntity
 67
     1
  8
0
100
AcDbBlockEnd
  0
BLOCK
  5
57
330
55
100
AcDbEntity
 67
     1
  8
0
100
AcDbBlockBegin
  2
*Paper_Space0
 70
     0
 10
0.0
 20
0.0
 30
0.0
  3
*Paper_Space0
  1

  0
VIEWPORT
  5
4A5
330
55
100
AcDbEntity
 67
     1
  8
0
100
AcDbViewport
 10
133.3499908447265
 20
101.5999970436096
 30
0.0
 40
373.0391584607661
 41
228.4221935424805
 68
     0
 69
     0
 12
133.3499908447265
 22
101.5999970436096
 13
0.0
 23
0.0
 14
10.0
 24
10.0
 15
10.0
 25
10.0
 16
0.0
 26
0.0
 36
1.0
 17
0.0
 27
0.0
 37
0.0
 42
50.0
 43
0.0
 44
0.0
 45
228.4221935424805
 50
0.0
 51
0.0
 72
  1000
 90
    32800
  1

281
     0
 71
     1
 74
     0
110
0.0
120
0.0
130
0.0
111
1.0
121
0.0
131
0.0
112
0.0
122
1.0
132
0.0
 79
     0
146
0.0
170
     0
 61
     5
348
4F9
292
     1
282
     1
141
0.0
142
0.0
 63
   250
421
  3355443
  0
VIEWPORT
  5
4A7
330
55
100
AcDbEntity
 67
     1
  8
0
100
AcDbViewport
 10
133.3499939441681
 20
101.5999939441681
 30
0.0
 40
213.3599903106689
 41
162.5599903106689
 68
     0
 69
     0
 12
143.8056636979804
 22
50.95016840112862
 13
0.0
 23
0.0
 14
10.0
 24
10.0
 15
10.0
 25
10.0
 16
0.0
 26
0.0
 36
1.0
 17
0.0
 27
0.0
 37
0.0
 42
50.0
 43
0.0
 44
0.0
 45
322.7272681472621
 50
0.0
 51
0.0
 72
  1000
 90
    32864
  1

281
     0
 71
     1
 74
     0
110
0.0
120
0.0
130
0.0
111
1.0
121
0.0
131
0.0
112
0.0
122
1.0
132
0.0
 79
     0
146
0.0
170
     0
 61
     5
348
4F9
292
     1
282
     1
141
0.0
142
0.0
 63
   250
421
  3355443
  0
ENDBLK
  5
58
330
55
100
AcDbEntity
 67
     1
  8
0
100
AcDbBlockEnd
  0
BLOCK
  5
4AA
330
4A8
100
AcDbEntity
 67
     1
  8
0
100
AcDbBlockBegin
  2
*Paper_Space1
 70
     0
 10
0.0
 20
0.0
 30
0.0
  3
*Paper_Space1
  1

  0
VIEWPORT
  5
4AF
330
4A8
100
AcDbEntity
 67
     1
  8
0
100
AcDbViewport
 10
98.97533035278321
 20
144.2296557426452
 30
0.0
 40
513.0385659282356
 41
314.1477025756836
 68
     0
 69
     0
 12
98.97533035278321
 22
144.2296557426452
 13
0.0
 23
0.0
 14
10.0
 24
10.0
 15
10.0
 25
10.0
 16
0.0
 26
0.0
 36
1.0
 17
0.0
 27
0.0
 37
0.0
 42
50.0
 43
0.0
 44
0.0
 45
314.1477025756836
 50
0.0
 51
0.0
 72
  1000
 90
    32800
  1

281
     0
 71
     1
 74
     0
110
0.0
120
0.0
130
0.0
111
1.0
121
0.0
131
0.0
112
0.0
122
1.0
132
0.0
 79
     0
146
0.0
170
     0
 61
     5
348
4F9
292
     1
282
     1
141
0.0
142
0.0
 63
   250
421
  3355443
  0
VIEWPORT
  5
4B1
330
4A8
100
AcDbEntity
 67
     1
  8
0
100
AcDbViewport
 10
106.6667515702566
 20
143.6063464934701
 30
0.0
 40
235.3159068920846
 41
305.836917562842
 68
     0
 69
     0
 12
266.8018511607286
 22
40.54460946007464
 13
0.0
 23
0.0
 14
10.0
 24
10.0
 15
10.0
 25
10.0
 16
0.0
 26
0.0
 36
1.0
 17
0.0
 27
0.0
 37
0.0
 42
50.0
 43
0.0
 44
0.0
 45
305.8369182704976
 50
0.0
 51
0.0
 72
  1000
 90
    32864
  1

281
     0
 71
     1
 74
     0
110
0.0
120
0.0
130
0.0
111
1.0
121
0.0
131
0.0
112
0.0
122
1.0
132
0.0
 79
     0
146
0.0
170
     0
 61
     5
348
4F9
292
     1
282
     1
141
0.0
142
0.0
 63
   250
421
  3355443
  0
ENDBLK
  5
4AB
330
4A8
100
AcDbEntity
 67
     1
  8
0
100
AcDbBlockEnd
  0
BLOCK
  5
A49
330
A48
100
AcDbEntity
  8
0
100
AcDbBlockBegin
  2
AUSSTRICH1
 70
     0
 10
0.0
 20
0.0
 30
0.0
  3
AUSSTRICH1
  1

  0
LINE
  5
A4A
330
A48
100
AcDbEntity
  8
0
  6
ByBlock
 62
     0
100
AcDbLine
 10
0.0
 20
19.99899999999998
 30
0.0
 11
0.0
 21
-8.499574999999984
 31
0.0
  0
LINE
  5
A4B
330
A48
100
AcDbEntity
  8
0
 62
     0
100
AcDbLine
 10
-2.424244888619583
 20
-2.424244888619995
 30
0.0
 11
0.0
 21
0.0
 31
0.0
  0
LINE
  5
A4C
330
A48
100
AcDbEntity
  8
0
  6
ByBlock
 62
     0
100
AcDbLine
 10
4.999750000000318
 20
0.0
 30
0.0
 11
-4.999750000000318
 21
0.0
 31
0.0
  0
LINE
  5
A4D
330
A48
100
AcDbEntity
  8
0
 62
     0
100
AcDbLine
 10
0.0
 20
0.0
 30
0.0
 11
2.424244888619583
 21
2.424244888619995
 31
0.0
  0
ENDBLK
  5
A4E
330
A48
100
AcDbEntity
  8
0
100
AcDbBlockEnd
  0
BLOCK
  5
A50
330
A4F
100
AcDbEntity
  8
0
100
AcDbBlockBegin
  2
AUSSTRICH2
 70
     0
 10
0.0
 20
0.0
 30
0.0
  3
AUSSTRICH2
  1

  0
LINE
  5
A51
330
A4F
100
AcDbEntity
  8
0
  6
ByBlock
 62
     0
100
AcDbLine
 10
0.0
 20
-19.99899999999998
 30
0.0
 11
0.0
 21
8.499574999999984
 31
0.0
  0
LINE
  5
A52
330
A4F
100
AcDbEntity
  8
0
  6
ByBlock
 62
     0
100
AcDbLine
 10
-4.999750000000318
 20
0.0
 30
0.0
 11
4.999750000000325
 21
0.0
 31
0.0
  0
LINE
  5
A53
330
A4F
100
AcDbEntity
  8
0
 62
     0
100
AcDbLine
 10
0.0
 20
0.0
 30
0.0
 11
2.424244888619584
 21
2.424244888619995
 31
0.0
  0
LINE
  5
A54
330
A4F
100
AcDbEntity
  8
0
 62
     0
100
AcDbLine
 10
-2.424244888619583
 20
-2.424244888619995
 30
0.0
 11
0.0
 21
0.0
 31
0.0
  0
ENDBLK
  5
A55
330
A4F
100
AcDbEntity
  8
0
100
AcDbBlockEnd
  0
ENDSEC
  0
SECTION
  2
ENTITIES
  0
LINE
  5
172
330
1F
100
AcDbEntity
  8
001_PLANKOPF_KGxxx
370
    25
100
AcDbLine
 10
0.0
 20
0.0000000000001847
 30
0.0
 11
419.9999999999997
 21
0.0000000000021174
 31
0.0
  0
LINE
  5
173
330
1F
100
AcDbEntity
  8
001_PLANKOPF_KGxxx
  6
Continuous
 62
     4
370
    50
100
AcDbLine
 10
20.00000000000058
 20
5.000000000001833
 30
0.0
 11
414.9999999999973
 21
5.000000000001662
 31
0.0
  0
LINE
  5
174
330
1F
100
AcDbEntity
  8
001_PLANKOPF_KGxxx
  6
Continuous
 62
     4
370
    50
100
AcDbLine
 10
20.00000000000015
 20
292.0000000000019
 30
0.0
 11
20.00000000000058
 21
5.000000000002001
 31
0.0
  0
LINE
  5
175
330
1F
100
AcDbEntity
  8
001_PLANKOPF_KGxxx
370
    25
100
AcDbLine
 10
419.9999999999991
 20
297.0000000000021
 30
0.0
 11
419.9999999999997
 21
0.0000000000021174
 31
0.0
  0
LINE
  5
176
330
1F
100
AcDbEntity
  8
001_PLANKOPF_KGxxx
  6
Continuous
 62
     4
370
    50
100
AcDbLine
 10
414.9999999999973
 20
292.0000000000024
 30
0.0
 11
414.9999999999986
 21
5.000000000001833
 31
0.0
  0
LINE
  5
177
330
1F
100
AcDbEntity
  8
001_PLANKOPF_KGxxx
370
    25
100
AcDbLine
 10
230.0
 20
5.000000000002245
 30
0.0
 11
230.0
 21
0.0000000000019753
 31
0.0
  0
LINE
  5
178
330
1F
100
AcDbEntity
  8
001_PLANKOPF_KGxxx
370
    25
100
AcDbLine
 10
0.0
 20
148.5000000000017
 30
0.0
 11
20.0
 21
148.5000000000019
 31
0.0
  0
LINE
  5
179
330
1F
100
AcDbEntity
  8
001_PLANKOPF_KGxxx
370
    25
100
AcDbLine
 10
-0.0000000000004263
 20
297.0000000000018
 30
0.0
 11
419.9999999999997
 21
297.0000000000021
 31
0.0
  0
LINE
  5
17A
330
1F
100
AcDbEntity
  8
001_PLANKOPF_KGxxx
  6
Continuous
 62
     4
370
    50
100
AcDbLine
 10
20.00000000000015
 20
292.0000000000019
 30
0.0
 11
414.9999999999986
 21
292.0000000000024
 31
0.0
  0
LINE
  5
17B
330
1F
100
AcDbEntity
  8
001_PLANKOPF_KGxxx
370
    25
100
AcDbLine
 10
-0.0000000000004263
 20
297.0000000000018
 30
0.0
 11
0.0
 21
0.0
 31
0.0
  0
LINE
  5
17C
330
1F
100
AcDbEntity
  8
001_PLANKOPF_KGxxx
  6
AUSGEZOGEN
 62
     7
370
    25
100
AcDbLine
 10
129.3594236931014
 20
14.73204896225444
 30
0.0
 11
169.3594236931008
 21
14.73204896225444
 31
0.0
  0
LINE
  5
17D
330
1F
100
AcDbEntity
  8
001_PLANKOPF_KGxxx
  6
AUSGEZOGEN
 62
     7
370
    25
100
AcDbLine
 10
119.3594238093729
 20
12.73204896225449
 30
0.0
 11
169.3594238093723
 21
12.73204896225449
 31
0.0
  0
HATCH
  5
17E
330
1F
100
AcDbEntity
  8
001_PLANKOPF_KGxxx
  6
AUSGEZOGEN
 62
     7
370
    25
100
AcDbHatch
 10
0.0
 20
0.0
 30
0.0
210
0.0
220
0.0
230
1.0
  2
SOLID
 70
     1
 71
     0
 91
        1
 92
        1
 93
        4
 72
     1
 10
159.3594236931008
 20
14.73204896225444
 11
149.3594236931008
 21
14.73204896225444
 72
     1
 10
149.3594236931011
 20
14.73204896225444
 11
149.3594238093723
 21
12.73204896225441
 72
     1
 10
149.3594238093723
 20
12.73204896225449
 11
159.3594238093723
 21
12.73204896225452
 72
     1
 10
159.3594238093723
 20
12.73204896225449
 11
159.3594236931008
 21
14.73204896225444
 97
        0
 75
     2
 76
     1
 98
        0
450
        0
451
        0
460
0.0
461
0.0
452
        0
462
0.0
453
        0
470

  0
LINE
  5
17F
330
1F
100
AcDbEntity
  8
001_PLANKOPF_KGxxx
  6
Continuous
 62
     4
370
    50
100
AcDbLine
 10
230.0
 20
292.0000000000024
 30
0.0
 11
230.0
 21
5.000000000001889
 31
0.0
  0
LINE
  5
180
330
1F
100
AcDbEntity
  8
001_PLANKOPF_KGxxx
  6
AUSGEZOGEN
 62
     7
370
    25
100
AcDbLine
 10
69.35940636857792
 20
12.73204314865599
 30
0.0
 11
119.3594238093729
 21
12.73204896225449
 31
0.0
  0
LINE
  5
181
330
1F
100
AcDbEntity
  8
001_PLANKOPF_KGxxx
  6
AUSGEZOGEN
 62
     7
370
    25
100
AcDbLine
 10
69.35940613603463
 20
14.73204314865602
 30
0.0
 11
119.3594235768296
 21
14.73204896225444
 31
0.0
  0
HATCH
  5
182
330
1F
100
AcDbEntity
  8
001_PLANKOPF_KGxxx
  6
AUSGEZOGEN
 62
     7
370
    25
100
AcDbHatch
 10
0.0
 20
0.0
 30
0.0
210
0.0
220
0.0
230
1.0
  2
SOLID
 70
     1
 71
     0
 91
        1
 92
        1
 93
        4
 72
     1
 10
79.35941582536512
 20
14.73204431137638
 11
69.35940613603492
 21
14.73204314865597
 72
     1
 10
69.35940613603492
 20
14.73204314865602
 11
69.35940636857765
 21
12.73204314865609
 72
     1
 10
69.35940636857792
 20
12.73204314865609
 11
79.35941594163665
 21
12.73204431137647
 72
     1
 10
79.35941594163665
 20
12.73204431137647
 11
79.35941582536514
 21
14.73204431137638
 97
        0
 75
     2
 76
     1
 98
        0
450
        0
451
        0
460
0.0
461
0.0
452
        0
462
0.0
453
        0
470

  0
TEXT
  5
183
330
1F
100
AcDbEntity
  8
001_PLANKOPF_KGxxx
  6
AUSGEZOGEN
 62
     7
370
    25
100
AcDbText
 10
69.49073186996796
 20
16.23204653992182
 30
0.0
 40
2.499999999999969
  1
0 m
  7
ARIAL
100
AcDbText
  0
LINE
  5
184
330
1F
100
AcDbEntity
  8
001_PLANKOPF_KGxxx
  6
AUSGEZOGEN
 62
     7
370
    25
100
AcDbLine
 10
69.35940613603463
 20
14.73204702438839
 30
0.0
 11
69.35940636857792
 21
12.73204314865599
 31
0.0
  0
LINE
  5
185
330
1F
100
AcDbEntity
  8
001_PLANKOPF_KGxxx
  6
AUSGEZOGEN
 62
     7
370
    25
100
AcDbLine
 10
69.35940613603463
 20
14.73204314865602
 30
0.0
 11
69.35940613603463
 21
14.73204702438839
 31
0.0
  0
LINE
  5
186
330
1F
100
AcDbEntity
  8
001_PLANKOPF_KGxxx
  6
AUSGEZOGEN
 62
     7
370
    25
100
AcDbLine
 10
79.35941594163665
 20
12.73204431137647
 30
0.0
 11
79.35941582536512
 21
14.73204431137643
 31
0.0
  0
HATCH
  5
187
330
1F
100
AcDbEntity
  8
001_PLANKOPF_KGxxx
  6
AUSGEZOGEN
 62
     7
370
    25
100
AcDbHatch
 10
0.0
 20
0.0
 30
0.0
210
0.0
220
0.0
230
1.0
  2
SOLID
 70
     1
 71
     0
 91
        1
 92
        1
 93
        4
 72
     1
 10
99.35943520402702
 20
14.73204663681724
 11
89.3594255146962
 21
14.73204547409683
 72
     1
 10
89.3594255146962
 20
14.73204547409683
 11
89.35942563096745
 21
12.73204547409689
 72
     1
 10
89.35942563096745
 20
12.73204547409689
 11
99.35943532029853
 21
12.73204663681729
 72
     1
 10
99.35943532029853
 20
12.73204663681729
 11
99.35943520402702
 21
14.73204663681727
 97
        0
 75
     2
 76
     1
 98
        0
450
        0
451
        0
460
0.0
461
0.0
452
        0
462
0.0
453
        0
470

  0
LINE
  5
188
330
1F
100
AcDbEntity
  8
001_PLANKOPF_KGxxx
  6
AUSGEZOGEN
 62
     7
370
    25
100
AcDbLine
 10
89.35942563096745
 20
12.73204547409695
 30
0.0
 11
89.3594255146962
 21
14.73204547409693
 31
0.0
  0
LINE
  5
189
330
1F
100
AcDbEntity
  8
001_PLANKOPF_KGxxx
  6
AUSGEZOGEN
 62
     7
370
    25
100
AcDbLine
 10
99.35943520402702
 20
14.73204663681717
 30
0.0
 11
99.35943532029853
 21
12.73204663681729
 31
0.0
  0
LINE
  5
18A
330
1F
100
AcDbEntity
  8
001_PLANKOPF_KGxxx
  6
AUSGEZOGEN
 62
     7
370
    25
100
AcDbLine
 10
119.3594236931014
 20
14.73204896225444
 30
0.0
 11
129.3594236931014
 21
14.73204896225444
 31
0.0
  0
HATCH
  5
18B
330
1F
100
AcDbEntity
  8
001_PLANKOPF_KGxxx
  6
AUSGEZOGEN
 62
     7
370
    25
100
AcDbHatch
 10
0.0
 20
0.0
 30
0.0
210
0.0
220
0.0
230
1.0
  2
SOLID
 70
     1
 71
     0
 91
        1
 92
        1
 93
        4
 72
     1
 10
119.3594235768296
 20
14.73204896225444
 11
109.3594138874988
 21
14.73204779953401
 72
     1
 10
109.3594138874985
 20
14.73204779953401
 11
109.35941400377
 21
12.7320477995341
 72
     1
 10
109.35941400377
 20
12.7320477995341
 11
119.3594236931008
 21
12.73204896225441
 72
     1
 10
119.3594236931008
 20
12.73204896225449
 11
119.3594235768296
 21
14.73204896225446
 97
        0
 75
     2
 76
     1
 98
        0
450
        0
451
        0
460
0.0
461
0.0
452
        0
462
0.0
453
        0
470

  0
LINE
  5
18C
330
1F
100
AcDbEntity
  8
001_PLANKOPF_KGxxx
  6
AUSGEZOGEN
 62
     7
370
    25
100
AcDbLine
 10
109.3594138874985
 20
14.73204779953401
 30
0.0
 11
109.35941400377
 21
12.73204779953414
 31
0.0
  0
TEXT
  5
18D
330
1F
100
AcDbEntity
  8
001_PLANKOPF_KGxxx
  6
AUSGEZOGEN
 62
     7
370
    25
100
AcDbText
 10
119.5634688499754
 20
16.23204653992158
 30
0.0
 40
2.499999999999969
  1
2.5 m
  7
ARIAL
100
AcDbText
  0
LINE
  5
18E
330
1F
100
AcDbEntity
  8
001_PLANKOPF_KGxxx
  6
AUSGEZOGEN
 62
     7
370
    25
100
AcDbLine
 10
119.3594236931008
 20
12.73204896225459
 30
0.0
 11
119.3594235768296
 21
14.73204896225444
 31
0.0
  0
HATCH
  5
18F
330
1F
100
AcDbEntity
  8
001_PLANKOPF_KGxxx
  6
AUSGEZOGEN
 62
     7
370
    25
100
AcDbHatch
 10
0.0
 20
0.0
 30
0.0
210
0.0
220
0.0
230
1.0
  2
SOLID
 70
     1
 71
     0
 91
        1
 92
        1
 93
        4
 72
     1
 10
139.3594236931011
 20
14.73204896225444
 11
129.3594236931014
 21
14.73204896225444
 72
     1
 10
129.3594236931014
 20
14.73204896225444
 11
129.3594238093729
 21
12.73204896225441
 72
     1
 10
129.3594238093726
 20
12.73204896225449
 11
139.3594238093723
 21
12.73204896225449
 72
     1
 10
139.3594238093726
 20
12.73204896225449
 11
139.3594236931014
 21
14.73204896225446
 97
        0
 75
     2
 76
     1
 98
        0
450
        0
451
        0
460
0.0
461
0.0
452
        0
462
0.0
453
        0
470

  0
LINE
  5
190
330
1F
100
AcDbEntity
  8
001_PLANKOPF_KGxxx
  6
AUSGEZOGEN
 62
     7
370
    25
100
AcDbLine
 10
129.3594236931014
 20
14.73204896225444
 30
0.0
 11
129.3594238093726
 21
12.73204896225449
 31
0.0
  0
LINE
  5
191
330
1F
100
AcDbEntity
  8
001_PLANKOPF_KGxxx
  6
AUSGEZOGEN
 62
     7
370
    25
100
AcDbLine
 10
139.3594236931011
 20
14.73204896225444
 30
0.0
 11
139.3594238093726
 21
12.73204896225449
 31
0.0
  0
LINE
  5
192
330
1F
100
AcDbEntity
  8
001_PLANKOPF_KGxxx
  6
AUSGEZOGEN
 62
     7
370
    25
100
AcDbLine
 10
149.3594236931011
 20
14.73204896225444
 30
0.0
 11
149.3594238093723
 21
12.73204896225449
 31
0.0
  0
LINE
  5
193
330
1F
100
AcDbEntity
  8
001_PLANKOPF_KGxxx
  6
AUSGEZOGEN
 62
     4
370
    50
100
AcDbLine
 10
414.9999999999973
 20
5.000000000001833
 30
0.0
 11
404.9999999999977
 21
5.000000000001833
 31
0.0
  0
LINE
  5
194
330
1F
100
AcDbEntity
  8
001_PLANKOPF_KGxxx
  6
AUSGEZOGEN
 62
     4
370
    50
100
AcDbLine
 10
414.9999999999973
 20
5.000000000001833
 30
0.0
 11
414.9999999999973
 21
15.00000000000168
 31
0.0
  0
ARC
  5
195
330
1F
100
AcDbEntity
  8
001_PLANKOPF_KGxxx
  6
AUSGEZOGEN
 62
     7
370
    25
100
AcDbCircle
 10
209.6210679934376
 20
24.15327229446206
 30
0.0
 40
9.99999999999988
100
AcDbArc
 50
285.6848226295788
 51
88.56521006822388
  0
TEXT
  5
196
330
1F
100
AcDbEntity
  8
001_PLANKOPF_KGxxx
  6
AUSGEZOGEN
 62
     7
370
    25
100
AcDbText
 10
169.2908746540203
 20
16.23204653992182
 30
0.0
 40
2.499999999999969
  1
5 m
  7
ARIAL
100
AcDbText
  0
LINE
  5
197
330
1F
100
AcDbEntity
  8
001_PLANKOPF_KGxxx
  6
AUSGEZOGEN
 62
     7
370
    25
100
AcDbLine
 10
159.3594236931008
 20
14.73204896225444
 30
0.0
 11
159.3594238093723
 21
12.73204896225449
 31
0.0
  0
LINE
  5
198
330
1F
100
AcDbEntity
  8
001_PLANKOPF_KGxxx
  6
AUSGEZOGEN
 62
     7
370
    25
100
AcDbLine
 10
169.3594236931008
 20
14.73204896225444
 30
0.0
 11
169.3594238093723
 21
12.73204896225449
 31
0.0
  0
ARC
  5
199
330
1F
100
AcDbEntity
  8
001_PLANKOPF_KGxxx
  6
AUSGEZOGEN
 62
     7
370
    25
100
AcDbCircle
 10
209.6210679934376
 20
24.15327229446206
 30
0.0
 40
9.99999999999988
100
AcDbArc
 50
91.43478993177449
 51
254.3151773704219
  0
LINE
  5
19A
330
1F
100
AcDbEntity
  8
001_PLANKOPF_KGxxx
  6
AUSGEZOGEN
 62
     7
370
    25
100
AcDbLine
 10
209.621067993438
 20
36.15327229446191
 30
0.0
 11
212.6210679934376
 21
12.15327229446193
 31
0.0
  0
LINE
  5
19B
330
1F
100
AcDbEntity
  8
001_PLANKOPF_KGxxx
  6
AUSGEZOGEN
 62
     7
370
    25
100
AcDbLine
 10
209.621067993438
 20
36.15327229446191
 30
0.0
 11
209.6210679934376
 21
14.15327229446201
 31
0.0
  0
LINE
  5
19C
330
1F
100
AcDbEntity
  8
001_PLANKOPF_KGxxx
  6
AUSGEZOGEN
 62
     7
370
    25
100
AcDbLine
 10
209.621067993438
 20
36.15327229446191
 30
0.0
 11
206.6210679934375
 21
12.15327229446222
 31
0.0
  0
LINE
  5
19D
330
1F
100
AcDbEntity
  8
001_PLANKOPF_KGxxx
  6
AUSGEZOGEN
 62
     7
370
    25
100
AcDbLine
 10
209.6210679934376
 20
14.15327229446201
 30
0.0
 11
212.6210679934376
 21
12.15327229446193
 31
0.0
  0
LINE
  5
19E
330
1F
100
AcDbEntity
  8
001_PLANKOPF_KGxxx
  6
AUSGEZOGEN
 62
     7
370
    25
100
AcDbLine
 10
209.6210679934376
 20
14.15327229446201
 30
0.0
 11
206.6210679934375
 21
12.15327229446222
 31
0.0
  0
TEXT
  5
19F
330
1F
100
AcDbEntity
  8
001_PLANKOPF_KGxxx
  6
AUSGEZOGEN
 62
     7
370
    35
100
AcDbText
 10
211.4247325887271
 20
40.0779426350656
 30
0.0
 40
3.499999999999956
  1
N
 50
179.9999999999992
  7
ARIAL
100
AcDbText
  0
LINE
  5
1A0
330
1F
100
AcDbEntity
  8
001_PLANKOPF_KGxxx
 48
0.4
370
    25
100
AcDbLine
 10
230.0
 20
292.0000000000024
 30
0.0
 11
230.0
 21
297.0000000000021
 31
0.0
  0
LINE
  5
1A1
330
1F
100
AcDbEntity
  8
001_PLANKOPF_KGxxx
370
    25
100
AcDbLine
 10
230.0
 20
5.000000000000269
 30
0.0
 11
230.0
 21
0.0
 31
0.0
  0
LINE
  5
1A2
330
1F
100
AcDbEntity
  8
001_PLANKOPF_KGxxx
370
    25
100
AcDbLine
 10
229.9999999999995
 20
297.0000000000001
 30
0.0
 11
229.9999999999995
 21
291.9999999999998
 31
0.0
  0
LINE
  5
1A3
330
1F
100
AcDbEntity
  8
001_PLANKOPF_KGxxx
370
    25
100
AcDbLine
 10
414.9999999999995
 20
297.0000000000021
 30
0.0
 11
419.9999999999997
 21
297.0000000000021
 31
0.0
  0
LINE
  5
1A4
330
1F
100
AcDbEntity
  8
001_PLANKOPF_KGxxx
370
    25
100
AcDbLine
 10
-0.0000000000005684
 20
297.0000000000015
 30
0.0
 11
4.999999999999722
 21
297.0000000000015
 31
0.0
  0
HATCH
  5
1A5
330
1F
100
AcDbEntity
  8
001_PLANKOPF_KGxxx
 62
     7
 48
0.3
100
AcDbHatch
 10
0.0
 20
0.0
 30
0.0
210
0.0
220
0.0
230
1.0
  2
SOLID
 70
     1
 71
     0
 91
        1
 92
        7
 72
     0
 73
     1
 93
        3
 10
209.621067993438
 20
36.15327229446182
 10
206.6210679934375
 20
12.15327229446222
 10
209.6210679934376
 20
14.15327229446205
 97
        0
 75
     0
 76
     1
 47
0.0161685275890614
 98
        1
 10
208.7463163374005
 20
19.95840852343269
450
        0
451
        0
460
0.0
461
0.0
452
        0
462
0.0
453
        0
470

  0
TEXT
  5
1A6
330
1F
100
AcDbEntity
  8
001_PLANKOPF_KGxxx
  6
AUSGEZOGEN
 62
     7
370
    25
100
AcDbText
 10
234.6365260391172
 20
40.86256670065865
 30
0.0
 40
3.024999999999999
  1
Niederlassung xxxx
  7
ARIAL
100
AcDbText
  0
LINE
  5
1A7
330
1F
100
AcDbEntity
  8
001_PLANKOPF_KGxxx
 62
     7
370
    25
100
AcDbLine
 10
155.3417088573042
 20
34.69577516767118
 30
0.0
 11
155.3417088573042
 21
29.4457751676712
 31
0.0
  0
LINE
  5
1A8
330
1F
100
AcDbEntity
  8
001_PLANKOPF_KGxxx
 62
     7
370
    25
100
AcDbLine
 10
152.7167088573042
 20
32.07077516767117
 30
0.0
 11
168.7796787711953
 21
32.07077516767117
 31
0.0
  0
HATCH
  5
1A9
330
1F
100
AcDbEntity
  8
001_PLANKOPF_KGxxx
 62
     7
370
    25
100
AcDbHatch
 10
0.0
 20
0.0
 30
0.0
210
0.0
220
0.0
230
1.0
  2
SOLID
 70
     1
 71
     0
 91
        2
 92
        7
 72
     1
 73
     1
 93
        3
 10
155.3417088573042
 20
33.9457751676712
 42
0.0
 10
155.3417088573042
 20
32.07077516767117
 42
0.0
 10
157.2167088573042
 20
32.07077516767117
 42
0.4142135623730966
 97
        0
 92
        7
 72
     1
 73
     1
 93
        3
 10
155.3417088573042
 20
30.19577516767117
 42
0.0
 10
155.3417088573042
 20
32.07077516767117
 42
0.0
 10
153.4667088573042
 20
32.07077516767117
 42
0.4142135623730951
 97
        0
 75
     0
 76
     1
 47
0.010997971939947
 98
        2
 10
156.2493608149438
 20
32.81313839722472
 10
154.5990849862445
 20
31.16344214151354
450
        0
451
        0
460
0.0
461
0.0
452
        0
462
0.0
453
        0
470

  0
TEXT
  5
1AA
330
1F
100
AcDbEntity
  8
001_PLANKOPF_KGxxx
  6
Continuous
 62
     7
370
    35
100
AcDbText
 10
157.5906282044072
 20
32.75873915700143
 30
0.0
 40
2.5
  1
xxx.xx m ü. NHN
 41
0.5
  7
ARIAL
100
AcDbText
  0
ARC
  5
1B2
330
1F
100
AcDbEntity
  8
001_PLANKOPF_KGxxx
 62
     7
370
    25
100
AcDbCircle
 10
155.3417088573042
 20
32.07077516767117
 30
0.0
 40
1.875
100
AcDbArc
 50
0.0099999999889389
 51
0.0
  0
LINE
  5
1B3
330
1F
100
AcDbEntity
  8
001_PLANKOPF_KGxxx
  6
AUSGEZOGEN
 62
     7
370
    25
100
AcDbLine
 10
409.9999999999977
 20
235.0420000000844
 30
0.0
 11
234.999999999999
 21
235.0420000000844
 31
0.0
  0
LINE
  5
1B4
330
1F
100
AcDbEntity
  8
001_PLANKOPF_KGxxx
  6
AUSGEZOGEN
 62
     7
370
    25
100
AcDbLine
 10
409.9999999999977
 20
240.0420000000845
 30
0.0
 11
234.999999999999
 21
240.0420000000845
 31
0.0
  0
LINE
  5
1B5
330
1F
100
AcDbEntity
  8
001_PLANKOPF_KGxxx
 62
     7
 48
0.03
100
AcDbLine
 10
234.999999999999
 20
235.0420000000844
 30
0.0
 11
234.999999999999
 21
240.0420000000845
 31
0.0
  0
LINE
  5
1B6
330
1F
100
AcDbEntity
  8
001_PLANKOPF_KGxxx
 62
     7
 48
0.03
100
AcDbLine
 10
409.9999999999977
 20
235.0420000000844
 30
0.0
 11
409.9999999999977
 21
240.0420000000845
 31
0.0
  0
LINE
  5
1B7
330
1F
100
AcDbEntity
  8
001_PLANKOPF_KGxxx
 62
     7
 48
0.03
100
AcDbLine
 10
377.999999999998
 20
235.0420000000844
 30
0.0
 11
377.999999999998
 21
240.0420000000845
 31
0.0
  0
LINE
  5
1B8
330
1F
100
AcDbEntity
  8
001_PLANKOPF_KGxxx
 62
     7
 48
0.03
100
AcDbLine
 10
357.4999999999982
 20
235.0420000000844
 30
0.0
 11
357.4999999999983
 21
240.0420000000845
 31
0.0
  0
LINE
  5
1B9
330
1F
100
AcDbEntity
  8
001_PLANKOPF_KGxxx
 62
     7
 48
0.03
100
AcDbLine
 10
244.9999999999991
 20
235.0420000000844
 30
0.0
 11
244.9999999999991
 21
240.0420000000845
 31
0.0
  0
TEXT
  5
1BA
330
1F
100
AcDbEntity
  8
001_PLANKOPF_KGxxx
  6
AUSGEZOGEN
 62
     7
370
    25
100
AcDbText
 10
235.95294813467
 20
236.3019801096923
 30
0.0
 40
1.799999999999999
  1
INDEX
  7
ARIAL
100
AcDbText
  0
TEXT
  5
1BB
330
1F
100
AcDbEntity
  8
001_PLANKOPF_KGxxx
  6
AUSGEZOGEN
 62
     7
370
    25
100
AcDbText
 10
247.4119963071261
 20
236.3019801096923
 30
0.0
 40
1.799999999999999
  1
ÄNDERUNG/ ERGÄNZUNG
  7
ARIAL
100
AcDbText
  0
TEXT
  5
1BC
330
1F
100
AcDbEntity
  8
001_PLANKOPF_KGxxx
  6
AUSGEZOGEN
 62
     7
370
    25
100
AcDbText
 10
359.5016549671606
 20
236.3019801096923
 30
0.0
 40
1.799999999999999
  1
DATUM
  7
ARIAL
100
AcDbText
  0
TEXT
  5
1BD
330
1F
100
AcDbEntity
  8
001_PLANKOPF_KGxxx
  6
AUSGEZOGEN
 62
     7
370
    25
100
AcDbText
 10
380.0212846629786
 20
236.3019801096923
 30
0.0
 40
1.799999999999999
  1
NAME
  7
ARIAL
100
AcDbText
  0
LINE
  5
1E1
330
1F
100
AcDbEntity
  8
001_PLANKOPF_KGxxx
  6
AUSGEZOGEN
 62
     7
370
    25
100
AcDbLine
 10
409.9999999999977
 20
60.04200000008415
 30
0.0
 11
364.9999999999976
 21
60.04200000008415
 31
0.0
  0
TEXT
  5
1E3
330
1F
100
AcDbEntity
  8
001_PLANKOPF_KGxxx
  6
AUSGEZOGEN
 62
     7
370
    25
100
AcDbText
 10
234.9701843864215
 20
35.92541106943929
 30
0.0
 40
2.0
  1
xxx
  7
ARIAL
100
AcDbText
  0
TEXT
  5
1E4
330
1F
100
AcDbEntity
  8
001_PLANKOPF_KGxxx
  6
AUSGEZOGEN
 62
     7
370
    25
100
AcDbText
 10
234.9776195682597
 20
30.92991083191193
 30
0.0
 40
2.0
  1
xxx
  7
ARIAL
100
AcDbText
  0
TEXT
  5
1E5
330
1F
100
AcDbEntity
  8
001_PLANKOPF_KGxxx
  6
AUSGEZOGEN
 62
     7
370
    25
100
AcDbText
 10
234.9335587874793
 20
25.94704942858026
 30
0.0
 40
2.0
  1
Tel.: xxx
  7
ARIAL
100
AcDbText
  0
TEXT
  5
1E6
330
1F
100
AcDbEntity
  8
001_PLANKOPF_KGxxx
  6
AUSGEZOGEN
 62
     7
370
    25
100
AcDbText
 10
234.7730087690993
 20
20.95454238797673
 30
0.0
 40
2.0
  1
Fax: xxx
  7
ARIAL
100
AcDbText
  0
LINE
  5
1E7
330
1F
100
AcDbEntity
  8
001_PLANKOPF_KGxxx
  6
AUSGEZOGEN
 62
     7
370
    25
100
AcDbLine
 10
409.9999999999977
 20
110.0420000000843
 30
0.0
 11
234.9999999999993
 21
110.0420000000843
 31
0.0
  0
LINE
  5
1E8
330
1F
100
AcDbEntity
  8
001_PLANKOPF_KGxxx
  6
AUSGEZOGEN
 62
     7
370
    25
100
AcDbLine
 10
409.9999999999977
 20
120.0420000000845
 30
0.0
 11
364.9999999999979
 21
120.0420000000845
 31
0.0
  0
LINE
  5
1E9
330
1F
100
AcDbEntity
  8
001_PLANKOPF_KGxxx
  6
AUSGEZOGEN
 62
     7
370
    25
100
AcDbLine
 10
409.9999999999977
 20
150.0420000000847
 30
0.0
 11
234.9999999999993
 21
150.0420000000847
 31
0.0
  0
LINE
  5
1EA
330
1F
100
AcDbEntity
  8
001_PLANKOPF_KGxxx
  6
AUSGEZOGEN
 62
     7
370
    25
100
AcDbLine
 10
409.9999999999977
 20
170.0420000000845
 30
0.0
 11
234.9999999999993
 21
170.0420000000845
 31
0.0
  0
TEXT
  5
1EB
330
1F
100
AcDbEntity
  8
001_PLANKOPF_KGxxx
  6
AUSGEZOGEN
 62
     7
370
    25
100
AcDbText
 10
234.7754130332395
 20
167.0112755758497
 30
0.0
 40
1.799999999999999
  1
MAßNAHME
  7
ARIAL
100
AcDbText
  0
LINE
  5
1EC
330
1F
100
AcDbEntity
  8
001_PLANKOPF_KGxxx
  6
AUSGEZOGEN
 62
     7
370
    25
100
AcDbLine
 10
409.9999999999977
 20
190.0420000000847
 30
0.0
 11
234.9999999999993
 21
190.0420000000847
 31
0.0
  0
TEXT
  5
1ED
330
1F
100
AcDbEntity
  8
001_PLANKOPF_KGxxx
  6
AUSGEZOGEN
 62
     7
370
    25
100
AcDbText
 10
234.7754130332395
 20
187.0117669095849
 30
0.0
 40
1.799999999999999
  1
LIEGENSCHAFT / BAUWERK-BAUKÖRPER
  7
ARIAL
100
AcDbText
  0
TEXT
  5
1EE
330
1F
100
AcDbEntity
  8
001_PLANKOPF_KGxxx
  6
AUSGEZOGEN
 62
     7
370
    25
100
AcDbText
 10
234.7754130332395
 20
107.041427003649
 30
0.0
 40
1.799999999999999
  1
PLANVERFASSER
  7
ARIAL
100
AcDbText
  0
LINE
  5
1EF
330
1F
100
AcDbEntity
  8
001_PLANKOPF_KGxxx
 62
     7
 48
0.03
100
AcDbLine
 10
318.9999999999977
 20
100.0420000000843
 30
0.0
 11
409.9999999999977
 21
100.0420000000843
 31
0.0
  0
TEXT
  5
1F0
330
1F
100
AcDbEntity
  8
001_PLANKOPF_KGxxx
  6
AUSGEZOGEN
 62
     7
370
    25
100
AcDbText
 10
318.7754130332379
 20
107.0406372682741
 30
0.0
 40
1.799999999999999
  1
BEARBEITET/ GEZEICHNET
  7
ARIAL
100
AcDbText
  0
TEXT
  5
1F1
330
1F
100
AcDbEntity
  8
001_PLANKOPF_KGxxx
  6
AUSGEZOGEN
 62
     7
370
    25
100
AcDbText
 10
318.7754130332379
 20
97.04063726827415
 30
0.0
 40
1.799999999999999
  1
UNTERSCHRIFT
  7
ARIAL
100
AcDbText
  0
TEXT
  5
1F2
330
1F
100
AcDbEntity
  8
001_PLANKOPF_KGxxx
  6
AUSGEZOGEN
 62
     7
370
    25
100
AcDbText
 10
364.7994061892808
 20
117.0786001203694
 30
0.0
 40
1.799999999999999
  1
PLANSTAND
  7
ARIAL
100
AcDbText
  0
LINE
  5
1F3
330
1F
100
AcDbEntity
  8
001_PLANKOPF_KGxxx
 62
     7
 48
0.03
100
AcDbLine
 10
318.9999999999977
 20
90.04200000008415
 30
0.0
 11
409.9999999999977
 21
90.04200000008408
 31
0.0
  0
TEXT
  5
1F4
330
1F
100
AcDbEntity
  8
001_PLANKOPF_KGxxx
  6
AUSGEZOGEN
 62
     7
370
    25
100
AcDbText
 10
364.7754130332379
 20
107.0406372682743
 30
0.0
 40
1.799999999999999
  1
PLANDATUM
  7
ARIAL
100
AcDbText
  0
TEXT
  5
1F5
330
1F
100
AcDbEntity
  8
001_PLANKOPF_KGxxx
  6
AUSGEZOGEN
 62
     7
370
    25
100
AcDbText
 10
318.7754130332379
 20
87.04063726827397
 30
0.0
 40
1.799999999999999
  1
DATEINAME
  7
ARIAL
100
AcDbText
  0
TEXT
  5
1F6
330
1F
100
AcDbEntity
  8
001_PLANKOPF_KGxxx
  6
AUSGEZOGEN
 62
     7
370
    25
100
AcDbText
 10
318.7761071962073
 20
82.59355945820642
 30
0.0
 40
1.5
  1
Xxxxxxxx-xx_xxx_x_xxx_x-xx_xxxxxx
  7
ARIAL
100
AcDbText
  0
TEXT
  5
1F7
330
1F
100
AcDbEntity
  8
001_PLANKOPF_KGxxx
  6
AUSGEZOGEN
 62
     7
370
    25
100
AcDbText
 10
364.7754130332379
 20
167.0406372682745
 30
0.0
 40
1.799999999999999
  1
MAßNAHMENR
  7
ARIAL
100
AcDbText
  0
LINE
  5
1F8
330
1F
100
AcDbEntity
  8
001_PLANKOPF_KGxxx
 62
     7
 48
0.03
100
AcDbLine
 10
364.9999999999975
 20
160.0420000000849
 30
0.0
 11
409.9999999999977
 21
160.0420000000848
 31
0.0
  0
TEXT
  5
1F9
330
1F
100
AcDbEntity
  8
001_PLANKOPF_KGxxx
  6
AUSGEZOGEN
 62
     7
370
    25
100
AcDbText
 10
364.7754130332377
 20
157.0406372682747
 30
0.0
 40
1.799999999999999
  1
KGR
  7
ARIAL
100
AcDbText
  0
LINE
  5
1FA
330
1F
100
AcDbEntity
  8
001_PLANKOPF_KGxxx
  6
AUSGEZOGEN
 62
     7
370
    25
100
AcDbLine
 10
409.9999999999977
 20
205.0420000000845
 30
0.0
 11
234.9999999999993
 21
205.0420000000845
 31
0.0
  0
LINE
  5
1FB
330
1F
100
AcDbEntity
  8
001_PLANKOPF_KGxxx
  6
AUSGEZOGEN
 62
     7
370
    25
100
AcDbLine
 10
409.9999999999977
 20
225.0420000000845
 30
0.0
 11
234.9999999999993
 21
225.0420000000845
 31
0.0
  0
LINE
  5
1FC
330
1F
100
AcDbEntity
  8
001_PLANKOPF_KGxxx
  6
AUSGEZOGEN
 62
     7
370
    25
100
AcDbLine
 10
409.9999999999977
 20
230.0420000000845
 30
0.0
 11
234.9999999999993
 21
230.0420000000845
 31
0.0
  0
LINE
  5
1FD
330
1F
100
AcDbEntity
  8
001_PLANKOPF_KGxxx
 62
     7
 48
0.03
100
AcDbLine
 10
234.9999999999993
 20
205.0420000000845
 30
0.0
 11
234.9999999999993
 21
230.0420000000845
 31
0.0
  0
LINE
  5
1FE
330
1F
100
AcDbEntity
  8
001_PLANKOPF_KGxxx
 62
     7
 48
0.03
100
AcDbLine
 10
409.9999999999977
 20
230.0420000000845
 30
0.0
 11
409.9999999999977
 21
205.0420000000845
 31
0.0
  0
LINE
  5
1FF
330
1F
100
AcDbEntity
  8
001_PLANKOPF_KGxxx
 62
     7
 48
0.03
100
AcDbLine
 10
252.4999999999991
 20
205.0420000000845
 30
0.0
 11
252.4999999999991
 21
225.0420000000845
 31
0.0
  0
LINE
  5
200
330
1F
100
AcDbEntity
  8
001_PLANKOPF_KGxxx
 62
     7
 48
0.03
100
AcDbLine
 10
269.9999999999991
 20
205.0420000000845
 30
0.0
 11
269.9999999999991
 21
225.0420000000845
 31
0.0
  0
LINE
  5
201
330
1F
100
AcDbEntity
  8
001_PLANKOPF_KGxxx
 62
     7
 48
0.03
100
AcDbLine
 10
287.4999999999987
 20
205.0420000000845
 30
0.0
 11
287.4999999999987
 21
225.0420000000845
 31
0.0
  0
LINE
  5
202
330
1F
100
AcDbEntity
  8
001_PLANKOPF_KGxxx
 62
     7
 48
0.03
100
AcDbLine
 10
304.9999999999986
 20
205.0420000000845
 30
0.0
 11
304.9999999999986
 21
225.0420000000845
 31
0.0
  0
LINE
  5
203
330
1F
100
AcDbEntity
  8
001_PLANKOPF_KGxxx
 62
     7
 48
0.03
100
AcDbLine
 10
322.4999999999985
 20
205.0420000000845
 30
0.0
 11
322.4999999999985
 21
225.0420000000845
 31
0.0
  0
LINE
  5
204
330
1F
100
AcDbEntity
  8
001_PLANKOPF_KGxxx
 62
     7
 48
0.03
100
AcDbLine
 10
339.9999999999983
 20
205.0420000000845
 30
0.0
 11
339.9999999999983
 21
225.0420000000845
 31
0.0
  0
LINE
  5
205
330
1F
100
AcDbEntity
  8
001_PLANKOPF_KGxxx
 62
     7
 48
0.03
100
AcDbLine
 10
357.4999999999982
 20
205.0420000000845
 30
0.0
 11
357.4999999999982
 21
225.0420000000845
 31
0.0
  0
LINE
  5
206
330
1F
100
AcDbEntity
  8
001_PLANKOPF_KGxxx
 62
     7
 48
0.03
100
AcDbLine
 10
374.999999999998
 20
205.0420000000845
 30
0.0
 11
374.999999999998
 21
225.0420000000845
 31
0.0
  0
LINE
  5
207
330
1F
100
AcDbEntity
  8
001_PLANKOPF_KGxxx
 62
     7
 48
0.03
100
AcDbLine
 10
392.4999999999976
 20
205.0420000000845
 30
0.0
 11
392.4999999999976
 21
225.0420000000845
 31
0.0
  0
TEXT
  5
208
330
1F
100
AcDbEntity
  8
001_PLANKOPF_KGxxx
  6
AUSGEZOGEN
 62
     7
370
    25
100
AcDbText
 10
236.3910641006338
 20
227.0117669095848
 30
0.0
 40
1.799999999999999
  1
ABGESTIMMT MIT PLANUNGSBETEILIGTEN
  7
ARIAL
100
AcDbText
  0
TEXT
  5
209
330
1F
100
AcDbEntity
  8
001_PLANKOPF_KGxxx
  6
AUSGEZOGEN
 62
     7
370
    25
100
AcDbText
 10
236.160256396776
 20
222.3439989562857
 30
0.0
 40
1.799999999999999
  1
ARCHITEKT
  7
ARIAL
100
AcDbText
  0
TEXT
  5
20A
330
1F
100
AcDbEntity
  8
001_PLANKOPF_KGxxx
  6
AUSGEZOGEN
 62
     7
370
    25
100
AcDbText
 10
271.1602563967758
 20
222.3439989562857
 30
0.0
 40
1.799999999999999
  1
ING-BAU
  7
ARIAL
100
AcDbText
  0
TEXT
  5
20B
330
1F
100
AcDbEntity
  8
001_PLANKOPF_KGxxx
  6
AUSGEZOGEN
 62
     7
370
    25
100
AcDbText
 10
341.1602563967752
 20
222.3439989562857
 30
0.0
 40
1.799999999999999
  1
HLS
  7
ARIAL
100
AcDbText
  0
TEXT
  5
20C
330
1F
100
AcDbEntity
  8
001_PLANKOPF_KGxxx
  6
AUSGEZOGEN
 62
     7
370
    25
100
AcDbText
 10
288.6602563967755
 20
222.3439989562857
 30
0.0
 40
1.799999999999999
  1
ELEKTRO
  7
ARIAL
100
AcDbText
  0
TEXT
  5
20D
330
1F
100
AcDbEntity
  8
001_PLANKOPF_KGxxx
  6
AUSGEZOGEN
 62
     7
370
    25
100
AcDbText
 10
306.1602563967753
 20
222.3439989562857
 30
0.0
 40
1.799999999999999
  1
MED/LABOR
  7
ARIAL
100
AcDbText
  0
TEXT
  5
20E
330
1F
100
AcDbEntity
  8
001_PLANKOPF_KGxxx
  6
AUSGEZOGEN
 62
     7
370
    25
100
AcDbText
 10
323.6602563967752
 20
222.3439989562857
 30
0.0
 40
1.799999999999999
  1
AUFZUG
  7
ARIAL
100
AcDbText
  0
LINE
  5
20F
330
1F
100
AcDbEntity
  8
001_PLANKOPF_KGxxx
  6
AUSGEZOGEN
 62
     7
370
    25
100
AcDbLine
 10
363.9999999999977
 20
60.04200000008415
 30
0.0
 11
234.9999999999993
 21
60.04200000008415
 31
0.0
  0
LINE
  5
211
330
1F
100
AcDbEntity
  8
001_PLANKOPF_KGxxx
  6
AUSGEZOGEN
 62
     7
370
    25
100
AcDbLine
 10
409.9999999999977
 20
17.52100000004317
 30
0.0
 11
364.9999999999975
 21
17.52100000004317
 31
0.0
  0
LINE
  5
212
330
1F
100
AcDbEntity
  8
001_PLANKOPF_KGxxx
 62
     7
 48
0.03
100
AcDbLine
 10
409.9999999999977
 20
37.5210000000432
 30
0.0
 11
409.9999999999977
 21
17.52100000004317
 31
0.0
  0
TEXT
  5
213
330
1F
100
AcDbEntity
  8
001_PLANKOPF_KGxxx
  6
AUSGEZOGEN
 62
     7
370
    25
100
AcDbText
 10
234.7754130332395
 20
147.014329047806
 30
0.0
 40
1.799999999999999
  1
PLANINHALT
  7
ARIAL
100
AcDbText
  0
LINE
  5
214
330
1F
100
AcDbEntity
  8
001_PLANKOPF_KGxxx
 62
     7
 48
0.03
100
AcDbLine
 10
364.9999999999976
 20
140.0420000000849
 30
0.0
 11
409.9999999999977
 21
140.0420000000848
 31
0.0
  0
TEXT
  5
215
330
1F
100
AcDbEntity
  8
001_PLANKOPF_KGxxx
  6
AUSGEZOGEN
 62
     7
370
    25
100
AcDbText
 10
364.7754130332379
 20
147.0406372682746
 30
0.0
 40
1.799999999999999
  1
PLANNR
  7
ARIAL
100
AcDbText
  0
TEXT
  5
217
330
1F
100
AcDbEntity
  8
001_PLANKOPF_KGxxx
  6
AUSGEZOGEN
 62
     7
370
    25
100
AcDbText
 10
389.7589323797829
 20
147.0406372682746
 30
0.0
 40
1.799999999999999
  1
TEILPLAN
  7
ARIAL
100
AcDbText
  0
LINE
  5
218
330
1F
100
AcDbEntity
  8
001_PLANKOPF_KGxxx
 62
     7
 48
0.03
100
AcDbLine
 10
363.9999999999975
 20
120.0420000000845
 30
0.0
 11
234.9999999999994
 21
120.0420000000845
 31
0.0
  0
TEXT
  5
219
330
1F
100
AcDbEntity
  8
001_PLANKOPF_KGxxx
  6
AUSGEZOGEN
 62
     7
370
    25
100
AcDbText
 10
234.7754130332396
 20
117.0143290478058
 30
0.0
 40
1.799999999999999
  1
PLANSTAND
  7
ARIAL
100
AcDbText
  0
TEXT
  5
21C
330
1F
100
AcDbEntity
  8
001_PLANKOPF_KGxxx
  6
AUSGEZOGEN
 62
     7
370
    25
100
AcDbText
 10
364.923763339164
 20
161.5169821577126
 30
0.0
 40
3.5
  1
xx xxxxx X xxxx
  7
ARIAL
100
AcDbText
  0
TEXT
  5
21D
330
1F
100
AcDbEntity
  8
001_PLANKOPF_KGxxx
  6
AUSGEZOGEN
 62
     7
370
    25
100
AcDbText
 10
234.8383628973643
 20
181.7697949503001
 30
0.0
 40
3.5
  1
xxx
  7
ARIAL
100
AcDbText
  0
TEXT
  5
21E
330
1F
100
AcDbEntity
  8
001_PLANKOPF_KGxxx
  6
AUSGEZOGEN
 62
     7
370
    25
100
AcDbText
 10
234.7754130332395
 20
177.9387239714435
 30
0.0
 40
2.0
  1
xxx
  7
ARIAL
100
AcDbText
  0
TEXT
  5
21F
330
1F
100
AcDbEntity
  8
001_PLANKOPF_KGxxx
  6
AUSGEZOGEN
 62
     7
370
    25
100
AcDbText
 10
234.7754130332395
 20
174.1613350158925
 30
0.0
 40
2.0
  1
xxx
  7
ARIAL
100
AcDbText
  0
TEXT
  5
220
330
1F
100
AcDbEntity
  8
001_PLANKOPF_KGxxx
  6
AUSGEZOGEN
 62
     7
370
    25
100
AcDbText
 10
234.8383628973643
 20
159.7799902590407
 30
0.0
 40
3.5
  1
xxx
  7
ARIAL
100
AcDbText
  0
TEXT
  5
221
330
1F
100
AcDbEntity
  8
001_PLANKOPF_KGxxx
  6
AUSGEZOGEN
 62
     7
370
    25
100
AcDbText
 10
234.8383628973643
 20
138.8694409246226
 30
0.0
 40
3.5
  1
xxx
  7
ARIAL
100
AcDbText
  0
TEXT
  5
222
330
1F
100
AcDbEntity
  8
001_PLANKOPF_KGxxx
  6
AUSGEZOGEN
 62
     7
370
    25
100
AcDbText
 10
234.8383628973643
 20
112.6806280025245
 30
0.0
 40
3.5
  1
xxx
  7
ARIAL
100
AcDbText
  0
TEXT
  5
223
330
1F
100
AcDbEntity
  8
001_PLANKOPF_KGxxx
  6
AUSGEZOGEN
 62
     7
370
    25
100
AcDbText
 10
364.9583233289645
 20
111.4822035170105
 30
0.0
 40
3.5
  1
xxx
  7
ARIAL
100
AcDbText
  0
TEXT
  5
224
330
1F
100
AcDbEntity
  8
001_PLANKOPF_KGxxx
  6
AUSGEZOGEN
 62
     7
370
    25
100
AcDbText
 10
365.0852769329302
 20
142.6164593451396
 30
0.0
 40
3.5
  1
xxxx
  7
ARIAL
100
AcDbText
  0
TEXT
  5
225
330
1F
100
AcDbEntity
  8
001_PLANKOPF_KGxxx
  6
AUSGEZOGEN
 62
     7
370
    25
100
AcDbText
 10
389.9017736772228
 20
142.6164593451396
 30
0.0
 40
3.5
  1
xx-xx
  7
ARIAL
100
AcDbText
  0
TEXT
  5
227
330
1F
100
AcDbEntity
  8
001_PLANKOPF_KGxxx
  6
AUSGEZOGEN
 62
     7
370
    25
100
AcDbText
 10
365.0852769329302
 20
101.4329962707195
 30
0.0
 40
3.5
  1
xx.xx.xxxx
  7
ARIAL
100
AcDbText
  0
TEXT
  5
228
330
1F
100
AcDbEntity
  8
001_PLANKOPF_KGxxx
  6
AUSGEZOGEN
 62
     7
370
    25
100
AcDbText
 10
234.8383628973643
 20
98.28056390962773
 30
0.0
 40
3.5
  1
xxx
  7
ARIAL
100
AcDbText
  0
TEXT
  5
229
330
1F
100
AcDbEntity
  8
001_PLANKOPF_KGxxx
  6
AUSGEZOGEN
 62
     7
370
    25
100
AcDbText
 10
234.7754130332396
 20
93.80400335952655
 30
0.0
 40
2.0
  1
xxx
  7
ARIAL
100
AcDbText
  0
TEXT
  5
22A
330
1F
100
AcDbEntity
  8
001_PLANKOPF_KGxxx
  6
AUSGEZOGEN
 62
     7
370
    25
100
AcDbText
 10
234.7754130332396
 20
89.57187119984196
 30
0.0
 40
2.0
  1
xxxxx xxx
  7
ARIAL
100
AcDbText
  0
LINE
  5
22B
330
1F
100
AcDbEntity
  8
001_PLANKOPF_KGxxx
  6
AUSGEZOGEN
 62
     7
370
    25
100
AcDbLine
 10
409.9999999999978
 20
80.04200000008415
 30
0.0
 11
234.9999999999994
 21
80.04200000008415
 31
0.0
  0
TEXT
  5
22C
330
1F
100
AcDbEntity
  8
001_PLANKOPF_KGxxx
  6
AUSGEZOGEN
 62
     7
370
    25
100
AcDbText
 10
234.7754130332396
 20
77.04142700364879
 30
0.0
 40
1.799999999999999
  1
FACHPLANER
  7
ARIAL
100
AcDbText
  0
LINE
  5
22D
330
1F
100
AcDbEntity
  8
001_PLANKOPF_KGxxx
 62
     7
 48
0.03
100
AcDbLine
 10
318.9999999999979
 20
70.04200000008416
 30
0.0
 11
363.9999999999978
 21
70.04200000008416
 31
0.0
  0
TEXT
  5
22E
330
1F
100
AcDbEntity
  8
001_PLANKOPF_KGxxx
  6
AUSGEZOGEN
 62
     7
370
    25
100
AcDbText
 10
318.775413033238
 20
77.04063726827398
 30
0.0
 40
1.799999999999999
  1
BEARBEITET/ GEZEICHNET
  7
ARIAL
100
AcDbText
  0
TEXT
  5
22F
330
1F
100
AcDbEntity
  8
001_PLANKOPF_KGxxx
  6
AUSGEZOGEN
 62
     7
370
    25
100
AcDbText
 10
318.775413033238
 20
67.04063726827399
 30
0.0
 40
1.799999999999999
  1
UNTERSCHRIFT
  7
ARIAL
100
AcDbText
  0
LINE
  5
230
330
1F
100
AcDbEntity
  8
001_PLANKOPF_KGxxx
 62
     7
 48
0.03
100
AcDbLine
 10
364.9999999999979
 20
70.04200000008438
 30
0.0
 11
409.9999999999978
 21
70.04200000008433
 31
0.0
  0
TEXT
  5
231
330
1F
100
AcDbEntity
  8
001_PLANKOPF_KGxxx
  6
AUSGEZOGEN
 62
     7
370
    25
100
AcDbText
 10
364.7754130332379
 20
77.0406372682742
 30
0.0
 40
1.799999999999999
  1
PLANDATUM
  7
ARIAL
100
AcDbText
  0
TEXT
  5
232
330
1F
100
AcDbEntity
  8
001_PLANKOPF_KGxxx
  6
AUSGEZOGEN
 62
     7
370
    25
100
AcDbText
 10
365.0852769329305
 20
71.43299627071937
 30
0.0
 40
3.5
  1
xx.xx.xxxx
  7
ARIAL
100
AcDbText
  0
TEXT
  5
233
330
1F
100
AcDbEntity
  8
001_PLANKOPF_KGxxx
  6
AUSGEZOGEN
 62
     7
370
    25
100
AcDbText
 10
234.8383628973644
 20
71.52710064615127
 30
0.0
 40
3.5
  1
xxx
  7
ARIAL
100
AcDbText
  0
TEXT
  5
234
330
1F
100
AcDbEntity
  8
001_PLANKOPF_KGxxx
  6
AUSGEZOGEN
 62
     7
370
    25
100
AcDbText
 10
234.7754130332398
 20
67.05054009605013
 30
0.0
 40
2.0
  1
xxx
  7
ARIAL
100
AcDbText
  0
TEXT
  5
235
330
1F
100
AcDbEntity
  8
001_PLANKOPF_KGxxx
  6
AUSGEZOGEN
 62
     7
370
    25
100
AcDbText
 10
234.7754130332398
 20
62.81840793636553
 30
0.0
 40
2.0
  1
xxxxx xxx
  7
ARIAL
100
AcDbText
  0
TEXT
  5
236
330
1F
100
AcDbEntity
  8
001_PLANKOPF_KGxxx
  6
AUSGEZOGEN
 62
     7
370
    25
100
AcDbText
 10
253.6602563967759
 20
222.3439989562857
 30
0.0
 40
1.799999999999999
  1
STATIK
  7
ARIAL
100
AcDbText
  0
TEXT
  5
237
330
1F
100
AcDbEntity
  8
001_PLANKOPF_KGxxx
  6
AUSGEZOGEN
 62
     7
370
    25
100
AcDbText
 10
365.0852769329302
 20
152.6164593451397
 30
0.0
 40
3.5
  1
xxx
  7
ARIAL
100
AcDbText
  0
TEXT
  5
238
330
1F
100
AcDbEntity
  8
001_PLANKOPF_KGxxx
  6
AUSGEZOGEN
 62
     7
370
    25
100
AcDbText
 10
234.8463407755156
 20
7.259910162071363
 30
0.0
 40
2.0
  1
DATEINAME: 
  7
ARIAL
100
AcDbText
  0
TEXT
  5
239
330
1F
100
AcDbEntity
  8
001_PLANKOPF_KGxxx
  6
AUSGEZOGEN
 62
     7
370
    25
100
AcDbText
 10
318.9507900099181
 20
47.16167440136707
 30
0.0
 40
1.799999999999999
  1
DATUM
  7
ARIAL
100
AcDbText
  0
LINE
  5
23A
330
1F
100
AcDbEntity
  8
001_PLANKOPF_KGxxx
 62
     7
 48
0.03
100
AcDbLine
 10
318.9999999999977
 20
37.5210000000432
 30
0.0
 11
318.9999999999975
 21
17.52100000004317
 31
0.0
  0
LINE
  5
23C
330
1F
100
AcDbEntity
  8
001_PLANKOPF_KGxxx
  6
AUSGEZOGEN
 62
     7
370
    25
100
AcDbLine
 10
409.9999999999977
 20
27.52100000004319
 30
0.0
 11
318.9999999999977
 21
27.52100000004319
 31
0.0
  0
LINE
  5
23D
330
1F
100
AcDbEntity
  8
001_PLANKOPF_KGxxx
  6
AUSGEZOGEN
 62
     7
370
    25
100
AcDbLine
 10
364.9999999999976
 20
17.52100000004317
 30
0.0
 11
318.9999999999975
 21
17.52100000004317
 31
0.0
  0
TEXT
  5
23E
330
1F
100
AcDbEntity
  8
001_PLANKOPF_KGxxx
  6
AUSGEZOGEN
 62
     7
370
    25
100
AcDbText
 10
319.4607042774112
 20
24.47045697611607
 30
0.0
 40
1.799999999999999
  1
DATUM
  7
ARIAL
100
AcDbText
  0
LINE
  5
23F
330
1F
100
AcDbEntity
  8
001_PLANKOPF_KGxxx
 62
     7
 48
0.03
100
AcDbLine
 10
364.9999999999976
 20
50.04200000008437
 30
0.0
 11
409.9999999999977
 21
50.04200000008437
 31
0.0
  0
TEXT
  5
240
330
1F
100
AcDbEntity
  8
001_PLANKOPF_KGxxx
  6
AUSGEZOGEN
 62
     7
370
    25
100
AcDbText
 10
318.949434848362
 20
57.05571642230998
 30
0.0
 40
1.799999999999999
  1
UNTERSCHRIFT
  7
ARIAL
100
AcDbText
  0
LINE
  5
241
330
1F
100
AcDbEntity
  8
001_PLANKOPF_KGxxx
 62
     7
 48
0.03
100
AcDbLine
 10
341.7499999999977
 20
37.5210000000432
 30
0.0
 11
341.7499999999975
 21
17.52100000004317
 31
0.0
  0
LINE
  5
242
330
1F
100
AcDbEntity
  8
001_PLANKOPF_KGxxx
 62
     7
 48
0.03
100
AcDbLine
 10
364.4999999999977
 20
37.5210000000432
 30
0.0
 11
364.4999999999975
 21
17.52100000004317
 31
0.0
  0
LINE
  5
243
330
1F
100
AcDbEntity
  8
001_PLANKOPF_KGxxx
 62
     7
 48
0.03
100
AcDbLine
 10
387.2499999999977
 20
37.5210000000432
 30
0.0
 11
387.2499999999975
 21
17.52100000004317
 31
0.0
  0
LINE
  5
244
330
1F
100
AcDbEntity
  8
001_PLANKOPF_KGxxx
 62
     7
 48
0.03
100
AcDbLine
 10
318.9999999999977
 20
50.04200000008437
 30
0.0
 11
363.9999999999977
 21
50.04200000008437
 31
0.0
  0
TEXT
  5
245
330
1F
100
AcDbEntity
  8
001_PLANKOPF_KGxxx
  6
AUSGEZOGEN
 62
     7
370
    25
100
AcDbText
 10
364.7994061892808
 20
187.0786001203695
 30
0.0
 40
1.799999999999999
  1
IS-OBJEKT-NR
  7
ARIAL
100
AcDbText
  0
TEXT
  5
246
330
1F
100
AcDbEntity
  8
001_PLANKOPF_KGxxx
  6
AUSGEZOGEN
 62
     7
370
    25
100
AcDbText
 10
364.9583233289645
 20
181.4822035170107
 30
0.0
 40
3.5
  1
Gxxxxxxx-xx
  7
ARIAL
100
AcDbText
  0
TEXT
  5
247
330
1F
100
AcDbEntity
  8
001_PLANKOPF_KGxxx
  6
AUSGEZOGEN
 62
     7
370
    25
100
AcDbText
 10
389.5772604209156
 20
117.0786001203694
 30
0.0
 40
1.799999999999999
  1
BEARB.STAND
  7
ARIAL
100
AcDbText
  0
TEXT
  5
248
330
1F
100
AcDbEntity
  8
001_PLANKOPF_KGxxx
  6
AUSGEZOGEN
 62
     7
370
    25
100
AcDbText
 10
389.6575181786473
 20
111.4822035170105
 30
0.0
 40
3.5
  1
x
  7
ARIAL
100
AcDbText
  0
TEXT
  5
249
330
1F
100
AcDbEntity
  8
001_PLANKOPF_KGxxx
  6
AUSGEZOGEN
 62
     7
370
    25
100
AcDbText
 10
364.7754130332379
 20
137.0406372682749
 30
0.0
 40
1.799999999999999
  1
CODIERUNG PLANINHALT
  7
ARIAL
100
AcDbText
  0
TEXT
  5
24A
330
1F
100
AcDbEntity
  8
001_PLANKOPF_KGxxx
  6
AUSGEZOGEN
 62
     7
370
    25
100
AcDbText
 10
365.0852769329302
 20
132.6164593451398
 30
0.0
 40
3.5
  1
xxx-xx
  7
ARIAL
100
AcDbText
  0
TEXT
  5
31A
330
1F
100
AcDbEntity
  8
001_PLANKOPF_KGxxx
  6
AUSGEZOGEN
 62
     7
370
    25
100
AcDbText
 10
318.7938204844614
 20
101.4329962707195
 30
0.0
 40
3.5
  1
xxx
  7
ARIAL
100
AcDbText
  0
TEXT
  5
31B
330
1F
100
AcDbEntity
  8
001_PLANKOPF_KGxxx
  6
AUSGEZOGEN
 62
     7
370
    25
100
AcDbText
 10
319.2862825804316
 20
71.43299627071937
 30
0.0
 40
3.5
  1
xxx
  7
ARIAL
100
AcDbText
  0
TEXT
  5
340
330
1F
100
AcDbEntity
  8
001_PLANKOPF_KGxxx
  6
AUSGEZOGEN
 62
     7
370
    25
100
AcDbText
 10
234.8383628973643
 20
196.4173443777159
 30
0.0
 40
3.5
  1
NHN im DHHN2016:
  7
ARIAL
100
AcDbText
  0
LINE
  5
3DC
330
1F
100
AcDbEntity
  8
001_PLANKOPF_KGxxx
 62
     7
 48
0.03
100
AcDbLine
 10
364.9999999999976
 20
40.04200000008458
 30
0.0
 11
409.9999999999977
 21
40.04200000008458
 31
0.0
  0
LINE
  5
3DD
330
1F
100
AcDbEntity
  8
001_PLANKOPF_KGxxx
 62
     7
 48
0.03
100
AcDbLine
 10
318.9999999999977
 20
40.04200000008458
 30
0.0
 11
364.9999999999976
 21
40.04200000008458
 31
0.0
  0
LINE
  5
3E5
330
1F
100
AcDbEntity
  8
001_PLANKOPF_KGxxx
 62
     7
100
AcDbLine
 10
318.9999999999977
 20
37.5210000000432
 30
0.0
 11
409.9999999999977
 21
37.5210000000432
 31
0.0
  0
LINE
  5
3E6
330
1F
100
AcDbEntity
  8
001_PLANKOPF_KGxxx
  6
AUSGEZOGEN
 62
     7
370
    25
100
AcDbLine
 10
409.9999999999977
 20
15.0000000000018
 30
0.0
 11
234.9999999999993
 21
15.0000000000018
 31
0.0
  0
TEXT
  5
3E9
330
1F
100
AcDbEntity
  8
001_PLANKOPF_KGxxx
  6
AUSGEZOGEN
 62
     7
370
    25
100
AcDbText
 10
234.8463407755157
 20
11.04225642613491
 30
0.0
 40
2.0
  1
NAME DES LAYOUTS:  Xxx
  7
ARIAL
100
AcDbText
  0
TEXT
  5
418
330
1F
100
AcDbEntity
  8
001_PLANKOPF_KGxxx
  6
AUSGEZOGEN
 62
     7
370
    25
100
AcDbText
 10
364.9494348483619
 20
57.05571642231021
 30
0.0
 40
1.799999999999999
  1
UNTERSCHRIFT
  7
ARIAL
100
AcDbText
  0
TEXT
  5
419
330
1F
100
AcDbEntity
  8
001_PLANKOPF_KGxxx
  6
AUSGEZOGEN
 62
     7
370
    25
100
AcDbText
 10
364.950790009918
 20
47.16167440136729
 30
0.0
 40
1.799999999999999
  1
DATUM
  7
ARIAL
100
AcDbText
  0
TEXT
  5
48C
330
1F
100
AcDbEntity
  8
001_PLANKOPF_KGxxx
  6
AUSGEZOGEN
 62
     7
370
    25
100
AcDbText
 10
389.622416415395
 20
127.103375171857
 30
0.0
 40
1.799999999999999
  1
FORMAT
  7
ARIAL
100
AcDbText
  0
TEXT
  5
48D
330
1F
100
AcDbEntity
  8
001_PLANKOPF_KGxxx
  6
AUSGEZOGEN
 62
     7
370
    25
100
AcDbText
 10
389.9322803150874
 20
122.6562973617894
 30
0.0
 40
2.0
  1
xxx x xxx 
  7
ARIAL
100
AcDbText
  0
TEXT
  5
48E
330
1F
100
AcDbEntity
  8
001_PLANKOPF_KGxxx
  6
AUSGEZOGEN
 62
     7
370
    25
100
AcDbText
 10
364.7754130332379
 20
127.0406372682741
 30
0.0
 40
1.799999999999999
  1
MAßSTAB
  7
ARIAL
100
AcDbText
  0
TEXT
  5
48F
330
1F
100
AcDbEntity
  8
001_PLANKOPF_KGxxx
  6
AUSGEZOGEN
 62
     7
370
    25
100
AcDbText
 10
365.0852769329305
 20
121.4673452295921
 30
0.0
 40
3.5
  1
x:x
  7
ARIAL
100
AcDbText
  0
LINE
  5
490
330
1F
100
AcDbEntity
  8
001_PLANKOPF_KGxxx
 62
     7
 48
0.03
100
AcDbLine
 10
364.9999999999979
 20
130.0420000000843
 30
0.0
 11
409.9999999999978
 21
130.0420000000843
 31
0.0
  0
TEXT
  5
508
330
1F
100
AcDbEntity
  8
001_PLANKOPF_KGxxx
  6
AUSGEZOGEN
 62
     7
370
    25
100
AcDbText
 10
234.7754130332395
 20
201.0599666120044
 30
0.0
 40
1.799999999999999
  1
LAGE-HÖHENSYSTEM
  7
ARIAL
100
AcDbText
  0
LINE
  5
536
330
1F
100
AcDbEntity
  8
001_PLANKOPF_KGxxx
 62
     7
 48
0.03
100
AcDbLine
 10
364.9999999999975
 20
180.0420000000849
 30
0.0
 11
409.9999999999977
 21
180.0420000000848
 31
0.0
  0
TEXT
  5
537
330
1F
100
AcDbEntity
  8
001_PLANKOPF_KGxxx
  6
AUSGEZOGEN
 62
     7
370
    25
100
AcDbText
 10
364.7754130332377
 20
177.0406372682747
 30
0.0
 40
1.799999999999999
  1
LIEGENSCHAFTSNUMMER
  7
ARIAL
100
AcDbText
  0
TEXT
  5
538
330
1F
100
AcDbEntity
  8
001_PLANKOPF_KGxxx
  6
AUSGEZOGEN
 62
     7
370
    25
100
AcDbText
 10
365.0852769329302
 20
172.6164593451396
 30
0.0
 40
3.5
  1
Lxxxxxxx
  7
ARIAL
100
AcDbText
  0
MTEXT
  5
A63
102
{ACAD_XDICTIONARY
360
FF7
102
}
330
1F
100
AcDbEntity
  8
001_PLANKOPF_KGxxx
  6
AUSGEZOGEN
 62
     7
370
    25
100
AcDbMText
 10
234.9559284627214
 20
53.99182558747871
 30
0.0
 40
3.024999999999999
 41
214.9
 46
0.0
 71
     1
 72
     1
  1
Staatsbetrieb Sächsisches\PImmobilien- und Baumanagement
  7
ARIAL
 73
     1
 44
1.0
  0
TEXT
  5
ABF
330
1F
100
AcDbEntity
  8
001_PLANKOPF_KGxxx
  6
AUSGEZOGEN
 62
     7
370
    25
100
AcDbText
 10
234.7754130332395
 20
56.9987491380307
 30
0.0
 40
1.799999999999999
  1
BAUHERR
  7
ARIAL
100
AcDbText
  0
MTEXT
  5
E74
102
{ACAD_XDICTIONARY
360
E75
102
}
330
1F
100
AcDbEntity
  8
001_PLANKOPF_KGxxx
  6
AUSGEZOGEN
 62
     7
370
    25
100
AcDbMText
 10
252.3052739405912
 20
9.3893838794379
 30
0.0
 40
2.0
 41
0.0
 46
0.0
 71
     1
 72
     5
  1
Plankopf_V1_7.dxf
  7
ARIAL
 73
     1
 44
1.0
  0
MTEXT
  5
E7A
102
{ACAD_XDICTIONARY
360
E7B
102
}
330
1F
100
AcDbEntity
  8
001_PLANKOPF_KGxxx
  6
AUSGEZOGEN
 62
     7
370
    25
100
AcDbMText
 10
13.00846197011423
 20
6.367326114531008
 30
0.0
 40
3.5
 41
0.0
 46
0.0
 71
     1
 72
     5
  1
S:\\CAD\\GA CAFM-Handbuch_Versionierung\\Version_1.7_2017_06_01\\Teil II Pflichtenheft\\Plankoepfe\\Plankopf_V1_7.dxf
  7
ARIAL
 11
0.0000000000000001
 21
1.0
 31
0.0
 73
     1
 44
1.0
  0
TEXT
  5
F1D
330
1F
100
AcDbEntity
  8
001_PLANKOPF_KGxxx
  6
AUSGEZOGEN
 62
     7
370
    25
100
AcDbText
 10
378.2391191381362
 20
1.841563711833089
 30
0.0
 40
1.799999999999999
  1
CAFM-Handbuch V1_7 , 06/2017
  7
ARIAL
100
AcDbText
  0
VIEWPORT
  5
264
330
50
100
AcDbEntity
 67
     1
  8
0
100
AcDbViewport
 10
101.5999970436096
 20
133.3499970436096
 30
0.0
 40
342.3427714404133
 41
295.6051935424806
 68
     2
 69
     1
 12
101.5999970436096
 22
133.3499970436096
 13
0.0
 23
0.0
 14
10.0
 24
10.0
 15
10.0
 25
10.0
 16
0.0
 26
0.0
 36
1.0
 17
0.0
 27
0.0
 37
0.0
 42
50.0
 43
0.0
 44
0.0
 45
295.6051935424806
 50
0.0
 51
0.0
 72
  1000
 90
    32800
  1

281
     0
 71
     1
 74
     0
110
0.0
120
0.0
130
0.0
111
1.0
121
0.0
131
0.0
112
0.0
122
1.0
132
0.0
 79
     0
146
0.0
170
     0
 61
     5
348
4F9
292
     1
282
     1
141
0.0
142
0.0
 63
   250
421
  3355443
  0
VIEWPORT
  5
266
330
50
100
AcDbEntity
 67
     1
  8
0
100
AcDbViewport
 10
100.8964315765898
 20
145.5101488325585
 30
0.0
 40
221.9939064325939
 41
301.7696002836968
 68
     1
 69
     2
 12
323.6272040425196
 22
144.6804970344211
 13
0.0
 23
0.0
 14
10.0
 24
10.0
 15
10.0
 25
10.0
 16
0.0
 26
0.0
 36
1.0
 17
0.0
 27
0.0
 37
0.0
 42
50.0
 43
0.0
 44
0.0
 45
301.7696005738049
 50
0.0
 51
0.0
 72
  1000
 90
    32864
  1

281
     0
 71
     1
 74
     0
110
0.0
120
0.0
130
0.0
111
1.0
121
0.0
131
0.0
112
0.0
122
1.0
132
0.0
 79
     0
146
0.0
170
     0
 61
     5
348
4F9
292
     1
282
     1
141
0.0
142
0.0
 63
   250
421
  3355443
  0
ENDSEC
  0
SECTION
  2
OBJECTS
  0
DICTIONARY
  5
C
330
0
100
AcDbDictionary
281
     1
  3
ACAD_CIP_PREVIOUS_PRODUCT_INFO
350
100A
  3
ACAD_COLOR
350
6B
  3
ACAD_DETAILVIEWSTYLE
350
1004
  3
ACAD_FIELDLIST
350
E79
  3
ACAD_GROUP
350
D
  3
ACAD_IMAGE_DICT
350
7BB
  3
ACAD_IMAGE_VARS
350
7BC
  3
ACAD_LAYOUT
350
1A
  3
ACAD_MATERIAL
350
6A
  3
ACAD_MLEADERSTYLE
350
795
  3
ACAD_MLINESTYLE
350
17
  3
ACAD_PLOTSETTINGS
350
19
  3
ACAD_PLOTSTYLENAME
350
E
  3
ACAD_SCALELIST
350
783
  3
ACAD_SECTIONVIEWSTYLE
350
1002
  3
ACAD_TABLESTYLE
350
504
  3
ACAD_VISUALSTYLE
350
4F3
  3
ACDB_RECOMPOSE_DATA
350
1184
  3
AcDbVariableDictionary
350
1174
  3
ADE_QUERY_LIBRARY
350
24F
  3
ASE_INDEX_DICTIONARY
350
E23
  3
Autodesk_MAP
350
5AF
1001
ADE
1000
ADE02C004
1000
[Query]
1000
CaseSensitiveMatch=0
1000
SaveCurrQueryInSession=1
1000
MkSelSetWithQryObj=0
1000
ShowBlockAsInsPt=0
1000
CreateAssociativeHatchObjects=0
1000
ReferenceBoundaryForAreaLocation=1
1000
ShowImageAsBoundary=1
1000
DefaultJoinOperator=2
1000
ColorForAdd=red
1000
ColorForRemove=red
1000
BlockLocnForQuery=1
1000
TextLocnForQuery=1
1000
IncludeAllObjectsInGroups=0
1000
AlwaysUseLibraryDefinitions=0
1000
PreviewDefinitionsFrom=2
1000
[Save Back]
1000
RedefineBlockDefinitions=1
1000
RedefineLayerDefinitions=1
1000
RedefineTextStyleDefinitions=1
1000
RemoveUnusedGroups=1
1000
EraseSavedBackObjects=1
1000
RemoveLockAfterSave=1
1000
CreateHistoryFileOfChanges=0
1000
CreateBackupFileOfSourceDwg=1
1000
DontAddObjectsToSaveSet=0
1000
MarkObjectsForEditingWithoutPrompting=0
1000
FdoDontAddObjsToSvSet=0
1000
FdoEditWithoutPrompt=1
1000
FdoRemUnusedGrps=1
1000
FdoEraseSvdBkObjs=1
1000
FdoRemoveLockOnSave=1
1000
FdoTesselationMaxPointsDistance=0
1000
FdoTesselationMaxCurvesDistance=0
1000
[Coordinate Transformation]
1000
RestoreLastActiveDwgsOnStartup=1
1000
ActivateDwgsOnAttach=1
1000
AdjustSizesAndScalesForChangesInUnits=1
1000
AdjustRotationsForMapDistortions=1
1000
AdjustSizesAndScalesForMapDistortions=1
1000
AdjustElevations=1
1000
AdjustZeroRotationObjects=1
1000
ReconnectDbOnWSOpen=1
1000
NoOfSQLConditionsInHistory=10
  0
DICTIONARY
  5
50B
330
8
100
AcDbDictionary
280
     1
281
     1
  0
DICTIONARY
  5
73E
330
2
100
AcDbDictionary
280
     1
281
     1
  3
ACAD_LAYERFILTERS
360
759
  3
ACAD_LAYERSTATES
360
7A2
  3
ACLYDICTIONARY
360
758
  0
DICTIONARY
  5
79B
330
10
100
AcDbDictionary
280
     1
281
     1
  3
ADSK_XREC_LAYER_RECONCILED
360
79C
  0
DICTIONARY
  5
79D
330
8D
100
AcDbDictionary
280
     1
281
     1
  3
ADSK_XREC_LAYER_RECONCILED
360
79E
  0
DICTIONARY
  5
7B7
330
1F
100
AcDbDictionary
280
     1
281
     1
  3
ACAD_SORTENTS
360
7B8
  0
DICTIONARY
  5
FF7
330
A63
100
AcDbDictionary
280
     1
281
     1
  0
DICTIONARY
  5
E75
330
E74
100
AcDbDictionary
280
     1
281
     1
  3
ACAD_FIELD
360
E76
  0
DICTIONARY
  5
E7B
330
E7A
100
AcDbDictionary
280
     1
281
     1
  3
ACAD_FIELD
360
E7C
  0
XRECORD
  5
100A
102
{ACAD_REACTORS
330
C
102
}
330
C
100
AcDbXrecord
280
     1
300
ARCHDESK
300
2017
300
86480ARCHDESK_2017_0F
  0
DICTIONARY
  5
6B
102
{ACAD_REACTORS
330
C
102
}
330
C
100
AcDbDictionary
281
     1
  0
DICTIONARY
  5
1004
102
{ACAD_REACTORS
330
C
102
}
330
C
100
AcDbDictionary
281
     1
  3
Metric50
350
1005
  0
FIELDLIST
  5
E79
102
{ACAD_REACTORS
330
C
102
}
330
C
100
AcDbIdSet
 90
        4
330
E77
330
E78
330
E7D
330
E7E
100
AcDbFieldList
  0
DICTIONARY
  5
D
102
{ACAD_REACTORS
330
C
102
}
330
C
100
AcDbDictionary
281
     1
  0
DICTIONARY
  5
7BB
102
{ACAD_REACTORS
330
C
102
}
330
C
100
AcDbDictionary
281
     1
  0
RASTERVARIABLES
  5
7BC
102
{ACAD_REACTORS
330
C
102
}
330
C
100
AcDbRasterVariables
 90
        0
 70
     1
 71
     1
 72
     1
  0
DICTIONARY
  5
1A
102
{ACAD_REACTORS
330
C
102
}
330
C
100
AcDbDictionary
281
     1
  3
Layout1
350
51
  3
Layout2
350
56
  3
Layout3
350
4A9
  3
Model
350
22
  0
DICTIONARY
  5
6A
102
{ACAD_REACTORS
330
C
102
}
330
C
100
AcDbDictionary
281
     1
  3
ByBlock
350
4F1
  3
ByLayer
350
4F0
  3
Global
350
4F2
  0
DICTIONARY
  5
795
102
{ACAD_REACTORS
330
C
102
}
330
C
100
AcDbDictionary
281
     1
  3
Standard
350
796
  0
DICTIONARY
  5
17
102
{ACAD_REACTORS
330
C
102
}
330
C
100
AcDbDictionary
281
     1
  3
Standard
350
18
  0
DICTIONARY
  5
19
102
{ACAD_REACTORS
330
C
102
}
330
C
100
AcDbDictionary
281
     1
  0
ACDBDICTIONARYWDFLT
  5
E
102
{ACAD_REACTORS
330
C
102
}
330
C
100
AcDbDictionary
281
     1
  3
Normal
350
F
100
AcDbDictionaryWithDefault
340
F
  0
DICTIONARY
  5
783
102
{ACAD_REACTORS
330
C
102
}
330
C
100
AcDbDictionary
281
     1
  3
A0
350
784
  3
A1
350
785
  3
A2
350
786
  3
A3
350
787
  3
A4
350
788
  3
A5
350
789
  3
A6
350
78A
  3
A7
350
78B
  3
A8
350
78C
  3
A9
350
78D
  3
B0
350
78E
  3
B1
350
78F
  3
B2
350
790
  3
B3
350
791
  3
B4
350
792
  3
B5
350
793
  3
B6
350
794
  0
DICTIONARY
  5
1002
102
{ACAD_REACTORS
330
C
102
}
330
C
100
AcDbDictionary
281
     1
  3
Metric50
350
1003
  0
DICTIONARY
  5
504
102
{ACAD_REACTORS
330
C
102
}
330
C
100
AcDbDictionary
281
     1
  3
Legend
350
5B5
  3
Standard
350
505
  0
DICTIONARY
  5
4F3
102
{ACAD_REACTORS
330
C
102
}
330
C
100
AcDbDictionary
281
     1
  3
2dWireframe
350
4F9
  3
3D Hidden
350
4FB
  3
3dWireframe
350
4FA
  3
Basic
350
4F8
  3
Brighten
350
4FF
  3
ColorChange
350
503
  3
Conceptual
350
4FC
  3
Dim
350
4FE
  3
EdgeColorOff
350
782
  3
Facepattern
350
502
  3
Flat
350
4F4
  3
FlatWithEdges
350
4F5
  3
Gouraud
350
4F6
  3
GouraudWithEdges
350
4F7
  3
Hidden
350
FFC
  3
JitterOff
350
780
  3
Linepattern
350
501
  3
OverhangOff
350
781
  3
Realistic
350
4FD
  3
Shaded
350
1001
  3
Shaded with edges
350
1000
  3
Shades of Gray
350
FFD
  3
Sketchy
350
FFE
  3
Thicken
350
500
  3
Wireframe
350
FFB
  3
X-Ray
350
FFF
  0
XRECORD
  5
1184
102
{ACAD_REACTORS
330
C
102
}
330
C
100
AcDbXrecord
280
     1
 90
        1
330
505
330
5B5
330
1003
330
1005
  0
DICTIONARY
  5
1174
102
{ACAD_REACTORS
330
C
102
}
330
C
100
AcDbDictionary
281
     1
  3
CANNOSCALE
350
117A
  3
CMLEADERSTYLE
350
1176
  3
CTABLESTYLE
350
1175
  3
CVIEWDETAILSTYLE
350
1177
  3
CVIEWSECTIONSTYLE
350
1178
  3
LAYEREVAL
350
117C
  3
LAYERNOTIFY
350
117D
  3
LIGHTINGUNITS
350
117B
  3
MSLTSCALE
350
1179
  0
DICTIONARY
  5
24F
102
{ACAD_REACTORS
330
C
102
}
330
C
100
AcDbDictionary
281
     1
  3
_CurrQry
350
FB1
  0
DICTIONARY
  5
E23
102
{ACAD_REACTORS
330
C
102
}
330
C
100
AcDbDictionary
281
     1
  3
ASEBlockHierarchyIndexRecord
350
E24
1001
DCO15
1040
1737279018.46
  0
DICTIONARY
  5
5AF
102
{ACAD_REACTORS
330
C
102
}
330
C
100
AcDbDictionary
281
     1
  3
AcMapDMStylizedEntities
350
5BC
  3
FSD_Dictionary
350
5BD
  3
MAP_DISPLAY_CUSTOMOBJ_REG_TABLE
350
5B3
  3
MAP_DISPLAY_MANAGEMENT_DICTIONARY
350
5B0
  3
MAP_DISPLAY_STYLELIBRARY_DICTIONARY
350
5B1
  3
MAP_RESOURCE_VERSION_MANAGEMENT_DICTIONARY
350
7B9
1001
MapGWS
1000
C:\Dokumente und Einstellungen\All Users\Anwendungsdaten\Autodesk\AutoCAD Map 3D 2010\R18.0\MapCache\101201_PlankopfGWS1290753659.xml
  0
DICTIONARY
  5
759
102
{ACAD_REACTORS
330
73E
102
}
330
73E
100
AcDbDictionary
281
     1
  0
DICTIONARY
  5
7A2
102
{ACAD_REACTORS
330
73E
102
}
330
73E
100
AcDbDictionary
281
     1
  0
DICTIONARY
  5
758
102
{ACAD_REACTORS
330
73E
102
}
330
73E
100
AcDbDictionary
281
     1
1001
ACAD
1000
<All
  0
XRECORD
  5
79C
102
{ACAD_REACTORS
330
79B
102
}
330
79B
100
AcDbXrecord
280
     1
290
     1
  0
XRECORD
  5
79E
102
{ACAD_REACTORS
330
79D
102
}
330
79D
100
AcDbXrecord
280
     1
290
     1
  0
SORTENTSTABLE
  5
7B8
102
{ACAD_REACTORS
330
7B7
102
}
330
7B7
100
AcDbSortentsTable
330
1F
331
48C
  5
48D
331
23F
  5
240
331
247
  5
248
331
204
  5
205
331
17C
  5
17D
331
1A7
  5
1A8
331
243
  5
244
331
490
  5
508
331
200
  5
201
331
178
  5
179
331
1A3
  5
1A4
331
20C
  5
20D
331
208
  5
209
331
31B
  5
340
331
214
  5
215
331
1B7
  5
1B8
331
1B3
  5
1B4
331
1BB
  5
1BC
331
21E
  5
21F
331
222
  5
223
331
1E7
  5
1E8
331
186
  5
187
331
1E3
  5
1E4
331
182
  5
183
331
18E
  5
18F
331
1EF
  5
1F0
331
1EB
  5
1EC
331
18A
  5
18B
331
22E
  5
22F
331
22A
  5
22B
331
236
  5
237
331
232
  5
233
331
1F7
  5
1F8
331
196
  5
197
331
1F3
  5
1F4
331
192
  5
193
331
19E
  5
19F
331
177
  5
178
331
1FF
  5
200
331
1FB
  5
1FC
331
173
  5
174
331
19A
  5
19B
331
48F
  5
490
331
23E
  5
23F
331
23A
  5
23C
331
246
  5
247
331
207
  5
208
331
242
  5
243
331
17F
  5
180
331
1A6
  5
1A7
331
203
  5
204
331
17B
  5
17C
331
1A2
  5
1A3
331
20F
  5
211
331
20B
  5
20C
331
1AA
  5
1B2
331
537
  5
538
331
31A
  5
31B
331
217
  5
218
331
1B6
  5
1B7
331
213
  5
214
331
1B2
  5
1B3
331
24A
  5
31A
331
1BA
  5
1BB
331
21D
  5
21E
331
219
  5
21C
331
225
  5
227
331
221
  5
222
331
185
  5
186
331
3E6
  5
3E9
331
1E6
  5
1E7
331
181
  5
182
331
18D
  5
18E
331
189
  5
18A
331
1EE
  5
1EF
331
1EA
  5
1EB
331
22D
  5
22E
331
229
  5
22A
331
235
  5
236
331
231
  5
232
331
195
  5
196
331
1F6
  5
1F7
331
191
  5
192
331
1F2
  5
1F3
331
19D
  5
19E
331
199
  5
19A
331
176
  5
177
331
1FE
  5
1FF
331
1FA
  5
1FB
331
172
  5
173
331
23D
  5
23E
331
48E
  5
48F
331
239
  5
23A
331
245
  5
246
331
1A5
  5
1A6
331
241
  5
242
331
206
  5
207
331
17E
  5
17F
331
1A1
  5
1A2
331
202
  5
203
331
17A
  5
17B
331
1A9
  5
1AA
331
20E
  5
20F
331
20A
  5
20B
331
536
  5
537
331
1B5
  5
1B6
331
212
  5
213
331
1BD
  5
1E1
331
249
  5
24A
331
1B9
  5
1BA
331
508
  5
536
331
3DD
  5
3E5
331
21C
  5
21D
331
218
  5
219
331
3E5
  5
3E6
331
224
  5
225
331
220
  5
221
331
1E5
  5
1E6
331
184
  5
185
331
1E1
  5
1E2
331
180
  5
181
331
18C
  5
18D
331
1ED
  5
1EE
331
538
  5
7BF
331
1E9
  5
1EA
331
188
  5
189
331
22C
  5
22D
331
3E9
  5
418
331
228
  5
229
331
234
  5
235
331
230
  5
231
331
1F5
  5
1F6
331
194
  5
195
331
419
  5
48C
331
1F1
  5
1F2
331
190
  5
191
331
19C
  5
19D
331
1FD
  5
1FE
331
175
  5
176
331
198
  5
199
331
1F9
  5
1FA
331
48D
  5
48E
331
23C
  5
23D
331
238
  5
239
331
244
  5
245
331
205
  5
206
331
240
  5
241
331
17D
  5
17E
331
1A4
  5
1A5
331
201
  5
202
331
179
  5
17A
331
1A0
  5
1A1
331
20D
  5
20E
331
1A8
  5
1A9
331
209
  5
20A
331
215
  5
217
331
1B4
  5
1B5
331
340
  5
3DC
331
211
  5
212
331
1BC
  5
1BD
331
248
  5
249
331
1B8
  5
1B9
331
3DC
  5
3DD
331
21F
  5
220
331
227
  5
228
331
1E4
  5
1E5
331
223
  5
224
331
187
  5
188
331
183
  5
184
331
18F
  5
190
331
1EC
  5
1ED
331
1E8
  5
1E9
331
18B
  5
18C
331
22F
  5
230
331
22B
  5
22C
331
237
  5
238
331
1F4
  5
1F5
331
197
  5
198
331
233
  5
234
331
418
  5
419
331
1F0
  5
1F1
331
193
  5
194
331
174
  5
175
331
19F
  5
1A0
331
1FC
  5
1FD
331
1F8
  5
1F9
331
19B
  5
19C
  0
DICTIONARY
  5
E76
102
{ACAD_REACTORS
330
E75
102
}
330
E75
100
AcDbDictionary
280
     1
281
     1
  3
TEXT
360
E77
  0
DICTIONARY
  5
E7C
102
{ACAD_REACTORS
330
E7B
102
}
330
E7B
100
AcDbDictionary
280
     1
281
     1
  3
TEXT
360
E7D
  0
ACDBDETAILVIEWSTYLE
  5
1005
102
{ACAD_XDICTIONARY
360
1182
102
}
102
{ACAD_REACTORS
330
1004
102
}
330
1004
100
AcDbModelDocViewStyle
 70
     0
  3
Metric50
290
     0
100
AcDbDetailViewStyle
 70
     0
 71
     0
 90
        3
 71
     1
340
11
 62
   256
 40
5.0
340
0
 62
   256
 40
5.0
300

 40
0.0
280
     1
 71
     2
340
16
 90
       25
 62
   256
 71
     3
340
11
 62
   256
 40
5.0
 90
        0
 40
15.0
 90
        1
300
%<\AcVar ViewDetailId>% (%<\AcVar ViewScale \f "%sn">%)
 71
     4
340
16
 90
       25
 62
   256
340
16
 90
       25
 62
   256
280
     0
  0
LAYOUT
  5
51
102
{ACAD_XDICTIONARY
360
7DB
102
}
102
{ACAD_REACTORS
330
1A
102
}
330
1A
100
AcDbPlotSettings
  1

  2
none_device
  4
Letter_(8.50_x_11.00_Inches)
  6

 40
6.349999904632567
 41
6.349999904632567
 42
6.350006103515625
 43
6.350006103515625
 44
215.8999938964844
 45
279.3999938964844
 46
0.0
 47
0.0
 48
0.0
 49
0.0
140
0.0
141
0.0
142
1.0
143
1.0
 70
   640
 72
     1
 73
     0
 74
     5
  7

 75
    16
147
0.9999999999999998
 76
     1
 77
     2
 78
   300
148
0.0
149
0.0
100
AcDbLayout
  1
Layout1
 70
     1
 71
     1
 10
-6.349999904632571
 20
-6.349999904632571
 11
209.5499939918519
 21
273.0499939918519
 12
0.0
 22
0.0
 32
0.0
 14
-10.10390662016857
 24
-5.389080130927936
 34
-0.0000000000112498
 15
211.896772874757
 25
296.3995645548904
 35
0.0000000000002956
146
0.0
 13
0.0
 23
0.0
 33
0.0
 16
1.0
 26
0.0
 36
0.0
 17
0.0
 27
1.0
 37
0.0
 76
     0
330
50
331
266
1001
ACAD_PSEXT
1000
Kein
1000
Kein
1000
Nicht anwendbar
1000
Das Layout wird erst geplottet, wenn ein neuer Plotter-Konfigurationsname ausgewählt wird.
1070
     0
  0
LAYOUT
  5
56
102
{ACAD_REACTORS
330
1A
102
}
330
1A
100
AcDbPlotSettings
  1

  2
none_device
  4
Letter_(8.50_x_11.00_Inches)
  6

 40
6.349999904632567
 41
6.349999904632567
 42
6.350006103515625
 43
6.350006103515625
 44
215.8999938964844
 45
279.3999938964844
 46
0.0
 47
0.0
 48
0.0
 49
0.0
140
0.0
141
0.0
142
1.0
143
1.0
 70
   688
 72
     1
 73
     1
 74
     5
  7

 75
    16
147
1.0
 76
     0
 77
     2
 78
   300
148
0.0
149
0.0
100
AcDbLayout
  1
Layout2
 70
     1
 71
     2
 10
-6.350006103515625
 20
-6.349999904632567
 11
273.0499877929688
 21
209.5499939918518
 12
0.0
 22
0.0
 32
0.0
 14
26.66999878883363
 24
20.31999878883363
 34
0.0
 15
240.0299890995026
 25
182.8799890995025
 35
0.0
146
0.0
 13
0.0
 23
0.0
 33
0.0
 16
1.0
 26
0.0
 36
0.0
 17
0.0
 27
1.0
 37
0.0
 76
     0
330
55
331
4A5
  0
LAYOUT
  5
4A9
102
{ACAD_REACTORS
330
1A
102
}
330
1A
100
AcDbPlotSettings
  1

  2
\\SIB-SRV-D302\HP5000N-EG
  4
A4
  6

 40
6.011333465576169
 41
4.233341693878172
 42
6.011322021484375
 43
4.23333740234375
 44
209.9733276367186
 45
296.9259948730469
 46
0.0
 47
0.0
 48
0.0
 49
0.0
140
0.0
141
0.0
142
1.0
143
1.0
 70
   688
 72
     1
 73
     0
 74
     5
  7
StifteA4.ctb
 75
    16
147
1.0
 76
     1
 77
     2
 78
   300
148
0.0
149
0.0
100
AcDbLayout
  1
Layout3
 70
     1
 71
     3
 10
-6.011333465576169
 20
-4.233341693878172
 11
203.9619941711426
 21
292.6926531791687
 12
0.0
 22
0.0
 32
0.0
 14
-10.99120187578569
 24
-9.312112287950867
 34
0.0
 15
224.3247050162989
 25
296.5248052748911
 35
0.0
146
0.0
 13
0.0
 23
0.0
 33
0.0
 16
1.0
 26
0.0
 36
0.0
 17
0.0
 27
1.0
 37
0.0
 76
     0
330
4A8
331
4AF
  0
LAYOUT
  5
22
102
{ACAD_XDICTIONARY
360
7A7
102
}
102
{ACAD_REACTORS
330
1A
102
}
330
1A
100
AcDbPlotSettings
  1

  2
none_device
  4
ANSI_A_(8.50_x_11.00_Inches)
  6

 40
6.349999904632567
 41
19.04999923706055
 42
6.350006103515625
 43
19.04998779296875
 44
215.8999938964844
 45
279.3999938964844
 46
0.0
 47
0.0
 48
0.0
 49
0.0
140
0.0
141
0.0
142
1.0
143
78.436453180766
 70
 11952
 72
     0
 73
     1
 74
     0
  7

 75
     0
147
0.0127491741332998
 76
     0
 77
     2
 78
   300
148
0.0
149
0.0
100
AcDbLayout
  1
Model
 70
     1
 71
     0
 10
0.0
 20
0.0
 11
12.0
 21
9.0
 12
0.0
 22
0.0
 32
0.0
 14
0.0
 24
0.0
 34
0.0
 15
0.0
 25
0.0
 35
0.0
146
0.0
 13
0.0
 23
0.0
 33
0.0
 16
1.0
 26
0.0
 36
0.0
 17
0.0
 27
1.0
 37
0.0
 76
     0
330
1F
331
4D1
  0
MATERIAL
  5
4F1
102
{ACAD_XDICTIONARY
360
1120
102
}
102
{ACAD_REACTORS
330
6A
102
}
330
6A
100
AcDbMaterial
  1
ByBlock
 73
     1
 78
     1
172
     1
176
     1
270
     1
274
     1
  0
MATERIAL
  5
4F0
102
{ACAD_XDICTIONARY
360
111E
102
}
102
{ACAD_REACTORS
330
6A
102
}
330
6A
100
AcDbMaterial
  1
ByLayer
 73
     1
 78
     1
172
     1
176
     1
270
     1
274
     1
  0
MATERIAL
  5
4F2
102
{ACAD_XDICTIONARY
360
1122
102
}
102
{ACAD_REACTORS
330
6A
102
}
330
6A
100
AcDbMaterial
  1
Global
 73
     1
 78
     1
172
     1
176
     1
270
     1
274
     1
  0
MLEADERSTYLE
  5
796
102
{ACAD_REACTORS
330
795
102
}
330
795
100
AcDbMLeaderStyle
179
     2
170
     2
171
     1
172
     0
 90
        2
 40
0.0
 41
0.0
173
     1
 91
-1056964608
340
14
 92
       -2
290
     1
 42
2.0
291
     1
 43
0.36
  3
Standard
 44
4.0
300

342
11
174
     1
178
     6
175
     1
176
     0
 93
-1056964608
 45
4.0
292
     0
297
     0
 46
4.0
 94
-1056964608
 47
1.0
 49
1.0
140
1.0
293
     1
141
0.0
294
     1
177
     0
142
1.0
295
     0
296
     0
143
0.125
271
     0
272
     9
273
     9
298
     0
1001
ACAD_MLEADERVER
1070
     2
  0
MLINESTYLE
  5
18
102
{ACAD_REACTORS
330
17
102
}
330
17
100
AcDbMlineStyle
  2
STANDARD
 70
     0
  3

 62
   256
 51
90.0
 52
90.0
 71
     2
 49
0.5
 62
   256
  6
BYLAYER
 49
-0.5
 62
   256
  6
BYLAYER
  0
ACDBPLACEHOLDER
  5
F
102
{ACAD_REACTORS
330
E
102
}
330
E
  0
SCALE
  5
784
102
{ACAD_REACTORS
330
783
102
}
330
783
100
AcDbScale
 70
     0
300
1:1
140
1.0
141
1.0
290
     1
  0
SCALE
  5
785
102
{ACAD_REACTORS
330
783
102
}
330
783
100
AcDbScale
 70
     0
300
1:2
140
1.0
141
2.0
290
     0
  0
SCALE
  5
786
102
{ACAD_REACTORS
330
783
102
}
330
783
100
AcDbScale
 70
     0
300
1:4
140
1.0
141
4.0
290
     0
  0
SCALE
  5
787
102
{ACAD_REACTORS
330
783
102
}
330
783
100
AcDbScale
 70
     0
300
1:5
140
1.0
141
5.0
290
     0
  0
SCALE
  5
788
102
{ACAD_REACTORS
330
783
102
}
330
783
100
AcDbScale
 70
     0
300
1:8
140
1.0
141
8.0
290
     0
  0
SCALE
  5
789
102
{ACAD_REACTORS
330
783
102
}
330
783
100
AcDbScale
 70
     0
300
1:10
140
1.0
141
10.0
290
     0
  0
SCALE
  5
78A
102
{ACAD_REACTORS
330
783
102
}
330
783
100
AcDbScale
 70
     0
300
1:16
140
1.0
141
16.0
290
     0
  0
SCALE
  5
78B
102
{ACAD_REACTORS
330
783
102
}
330
783
100
AcDbScale
 70
     0
300
1:20
140
1.0
141
20.0
290
     0
  0
SCALE
  5
78C
102
{ACAD_REACTORS
330
783
102
}
330
783
100
AcDbScale
 70
     0
300
1:30
140
1.0
141
30.0
290
     0
  0
SCALE
  5
78D
102
{ACAD_REACTORS
330
783
102
}
330
783
100
AcDbScale
 70
     0
300
1:40
140
1.0
141
40.0
290
     0
  0
SCALE
  5
78E
102
{ACAD_REACTORS
330
783
102
}
330
783
100
AcDbScale
 70
     0
300
1:50
140
1.0
141
50.0
290
     0
  0
SCALE
  5
78F
102
{ACAD_REACTORS
330
783
102
}
330
783
100
AcDbScale
 70
     0
300
1:100
140
1.0
141
100.0
290
     0
  0
SCALE
  5
790
102
{ACAD_REACTORS
330
783
102
}
330
783
100
AcDbScale
 70
     0
300
2:1
140
2.0
141
1.0
290
     0
  0
SCALE
  5
791
102
{ACAD_REACTORS
330
783
102
}
330
783
100
AcDbScale
 70
     0
300
4:1
140
4.0
141
1.0
290
     0
  0
SCALE
  5
792
102
{ACAD_REACTORS
330
783
102
}
330
783
100
AcDbScale
 70
     0
300
8:1
140
8.0
141
1.0
290
     0
  0
SCALE
  5
793
102
{ACAD_REACTORS
330
783
102
}
330
783
100
AcDbScale
 70
     0
300
10:1
140
10.0
141
1.0
290
     0
  0
SCALE
  5
794
102
{ACAD_REACTORS
330
783
102
}
330
783
100
AcDbScale
 70
     0
300
100:1
140
100.0
141
1.0
290
     0
  0
ACDBSECTIONVIEWSTYLE
  5
1003
102
{ACAD_XDICTIONARY
360
1180
102
}
102
{ACAD_REACTORS
330
1002
102
}
330
1002
100
AcDbModelDocViewStyle
 70
     0
  3
Metric50
290
     0
100
AcDbSectionViewStyle
 70
     0
 71
     0
 90
      102
 71
     1
340
11
 62
   256
 40
5.0
340
0
340
0
 62
   256
 40
5.0
300
I, O, Q, S, X, Z
 40
10.0
 90
        0
 40
2.5
 90
        0
 71
     2
340
16
 90
       25
 62
   256
340
16
 90
       50
 62
   256
 40
5.0
 40
2.5
 40
5.0
 71
     3
340
11
 62
   256
 40
5.0
 90
        0
 40
15.0
 90
        1
300
%<\AcVar ViewSectionStartId>%-%<\AcVar ViewSectionEndId>% (%<\AcVar ViewScale \f "%sn">%)
 71
     4
 62
   256
 62
   257
300
ANSI31
 40
1.0
 90
        0
290
     0
290
     0
 90
        6
 40
0.0
 40
1.570796326794896
 40
0.2617993877991494
 40
1.308996938995747
 40
-0.2617993877991494
 40
1.832595714594045
  0
TABLESTYLE
  5
5B5
102
{ACAD_XDICTIONARY
360
7FE
102
}
102
{ACAD_REACTORS
330
504
102
}
330
504
100
AcDbTableStyle
280
     0
  3

 70
     0
 71
     1
 40
0.06
 41
0.06
280
     0
281
     0
  7
Standard
140
0.4
170
     4
 62
     0
 63
     7
283
     0
 90
      512
 91
        0
  1

274
    -2
284
     0
 64
     0
275
    -2
285
     0
 65
     0
276
    -2
286
     1
 66
     0
277
    -2
287
     1
 67
     0
278
    -2
288
     0
 68
     0
279
    -2
289
     1
 69
     0
  7
Standard
140
0.5
170
     5
 62
     0
 63
     7
283
     0
 90
      512
 91
        0
  1

274
    -2
284
     1
 64
     0
275
    -2
285
     0
 65
     0
276
    -2
286
     1
 66
     0
277
    -2
287
     1
 67
     0
278
    -2
288
     0
 68
     0
279
    -2
289
     1
 69
     0
  7
Standard
140
0.4
170
     4
 62
     0
 63
     7
283
     0
 90
      512
 91
        0
  1

274
    -2
284
     1
 64
     0
275
    -2
285
     0
 65
     0
276
    -2
286
     1
 66
     0
277
    -2
287
     1
 67
     0
278
    -2
288
     0
 68
     0
279
    -2
289
     1
 69
     0
  0
TABLESTYLE
  5
505
102
{ACAD_XDICTIONARY
360
7FC
102
}
102
{ACAD_REACTORS
330
504
102
}
330
504
100
AcDbTableStyle
280
     0
  3
Standard
 70
     0
 71
     0
 40
1.5
 41
1.5
280
     0
281
     0
  7
Standard
140
4.5
170
     2
 62
     0
 63
     7
283
     0
 90
      512
 91
        0
  1

274
    -2
284
     1
 64
     0
275
    -2
285
     1
 65
     0
276
    -2
286
     1
 66
     0
277
    -2
287
     1
 67
     0
278
    -2
288
     1
 68
     0
279
    -2
289
     1
 69
     0
  7
Standard
140
6.0
170
     5
 62
     0
 63
     7
283
     0
 90
      512
 91
        0
  1

274
    -2
284
     1
 64
     0
275
    -2
285
     1
 65
     0
276
    -2
286
     1
 66
     0
277
    -2
287
     1
 67
     0
278
    -2
288
     1
 68
     0
279
    -2
289
     1
 69
     0
  7
Standard
140
4.5
170
     5
 62
     0
 63
     7
283
     0
 90
      512
 91
        0
  1

274
    -2
284
     1
 64
     0
275
    -2
285
     1
 65
     0
276
    -2
286
     1
 66
     0
277
    -2
287
     1
 67
     0
278
    -2
288
     1
 68
     0
279
    -2
289
     1
 69
     0
  0
VISUALSTYLE
  5
4F9
102
{ACAD_REACTORS
330
4F3
102
}
330
4F3
100
AcDbVisualStyle
  2

 70
     4
177
     3
291
     0
 70
    58
 90
        0
176
     1
 90
        2
176
     1
 90
        0
176
     1
 90
        0
176
     1
 40
0.6
176
     1
 40
30.0
176
     1
 62
     7
176
     1
 90
        1
176
     1
 90
        4
176
     1
 62
     7
176
     1
 62
   257
176
     1
 90
        1
176
     1
 90
        1
176
     1
 40
1.0
176
     1
 90
        0
176
     1
 62
   257
176
     1
 40
1.0
176
     1
 90
        1
176
     1
 90
        6
176
     1
 90
        2
176
     1
 62
     7
176
     1
 90
        5
176
     1
 90
        0
176
     1
 90
        0
176
     1
290
     0
176
     1
 90
        1
176
     1
 40
0.0
176
     1
 90
        0
176
     1
290
     1
176
     1
290
     1
176
     1
290
     0
176
     1
290
     0
176
     1
290
     0
176
     1
290
     0
176
     1
290
     0
176
     1
290
     0
176
     1
290
     0
176
     1
 90
       50
176
     1
 40
0.0
176
     1
 40
1.0
176
     1
 90
        0
176
     1
 62
    18
420
        0
176
     1
 90
       50
176
     1
 90
        3
176
     1
 62
     5
420
      255
176
     1
290
     0
176
     1
 90
       50
176
     1
 90
       50
176
     1
 90
       50
176
     1
290
     0
176
     1
 90
       50
176
     1
 62
   256
176
     0
 40
1.0
176
     0
 90
        2
176
     1
  1
strokes_ogs.tif
176
     1
290
     0
176
     1
 40
1.0
176
     1
 40
1.0
176
     1
1001
ACAD
1000
AcDbSavedByObjectVersion
1070
     0
  0
VISUALSTYLE
  5
4FB
102
{ACAD_REACTORS
330
4F3
102
}
330
4F3
100
AcDbVisualStyle
  2

 70
     6
177
     3
291
     0
 70
    58
 90
        1
176
     1
 90
        2
176
     1
 90
        2
176
     1
 90
        0
176
     1
 40
0.6
176
     1
 40
30.0
176
     1
 62
     7
176
     1
 90
        2
176
     1
 90
        2
176
     1
 62
     7
176
     1
 62
   257
176
     1
 90
        2
176
     1
 90
        1
176
     1
 40
40.0
176
     1
 90
        0
176
     1
 62
   257
176
     1
 40
1.0
176
     1
 90
        1
176
     1
 90
        6
176
     1
 90
        2
176
     1
 62
     7
176
     1
 90
        3
176
     1
 90
        0
176
     1
 90
        0
176
     1
290
     0
176
     1
 90
        1
176
     1
 40
0.0
176
     1
 90
        0
176
     1
290
     0
176
     1
290
     1
176
     1
290
     1
176
     1
290
     0
176
     1
290
     0
176
     1
290
     0
176
     1
290
     0
176
     1
290
     0
176
     1
290
     0
176
     1
 90
       50
176
     1
 40
0.0
176
     1
 40
1.0
176
     1
 90
        0
176
     1
 62
    18
420
        0
176
     1
 90
       50
176
     1
 90
        3
176
     1
 62
     5
420
      255
176
     1
290
     0
176
     1
 90
       50
176
     1
 90
       50
176
     1
 90
       50
176
     1
290
     0
176
     1
 90
       50
176
     1
 62
   256
176
     0
 40
1.0
176
     0
 90
        2
176
     1
  1
strokes_ogs.tif
176
     1
290
     0
176
     1
 40
1.0
176
     1
 40
1.0
176
     1
1001
ACAD
1000
AcDbSavedByObjectVersion
1070
     0
  0
VISUALSTYLE
  5
4FA
102
{ACAD_REACTORS
330
4F3
102
}
330
4F3
100
AcDbVisualStyle
  2

 70
     5
177
     3
291
     0
 70
    58
 90
        0
176
     1
 90
        2
176
     1
 90
        0
176
     1
 90
        0
176
     1
 40
0.6
176
     1
 40
30.0
176
     1
 62
     7
176
     1
 90
        1
176
     1
 90
        4
176
     1
 62
     7
176
     1
 62
   257
176
     1
 90
        1
176
     1
 90
        1
176
     1
 40
1.0
176
     1
 90
        0
176
     1
 62
   257
176
     1
 40
1.0
176
     1
 90
        1
176
     1
 90
        6
176
     1
 90
        2
176
     1
 62
     7
176
     1
 90
        5
176
     1
 90
        0
176
     1
 90
        0
176
     1
290
     0
176
     1
 90
        1
176
     1
 40
0.0
176
     1
 90
        0
176
     1
290
     0
176
     1
290
     1
176
     1
290
     1
176
     1
290
     0
176
     1
290
     0
176
     1
290
     0
176
     1
290
     0
176
     1
290
     0
176
     1
290
     0
176
     1
 90
       50
176
     1
 40
0.0
176
     1
 40
1.0
176
     1
 90
        0
176
     1
 62
    18
420
        0
176
     1
 90
       50
176
     1
 90
        3
176
     1
 62
     5
420
      255
176
     1
290
     0
176
     1
 90
       50
176
     1
 90
       50
176
     1
 90
       50
176
     1
290
     0
176
     1
 90
       50
176
     1
 62
   256
176
     0
 40
1.0
176
     0
 90
        2
176
     1
  1
strokes_ogs.tif
176
     1
290
     0
176
     1
 40
1.0
176
     1
 40
1.0
176
     1
1001
ACAD
1000
AcDbSavedByObjectVersion
1070
     0
  0
VISUALSTYLE
  5
4F8
102
{ACAD_REACTORS
330
4F3
102
}
330
4F3
100
AcDbVisualStyle
  2

 70
     7
177
     3
291
     1
 70
    58
 90
        1
176
     1
 90
        0
176
     1
 90
        1
176
     1
 90
        0
176
     1
 40
0.6
176
     1
 40
30.0
176
     1
 62
     7
176
     1
 90
        0
176
     1
 90
        4
176
     1
 62
     7
176
     1
 62
   257
176
     1
 90
        1
176
     1
 90
        1
176
     1
 40
1.0
176
     1
 90
        8
176
     1
 62
     7
176
     1
 40
1.0
176
     1
 90
        1
176
     1
 90
        6
176
     1
 90
        2
176
     1
 62
     7
176
     1
 90
        5
176
     1
 90
        0
176
     1
 90
        0
176
     1
290
     0
176
     1
 90
        1
176
     1
 40
0.0
176
     1
 90
        0
176
     1
290
     0
176
     1
290
     1
176
     1
290
     1
176
     1
290
     0
176
     1
290
     0
176
     1
290
     0
176
     1
290
     0
176
     1
290
     0
176
     1
290
     0
176
     1
 90
       50
176
     1
 40
0.0
176
     1
 40
1.0
176
     1
 90
        0
176
     1
 62
    18
420
        0
176
     1
 90
       50
176
     1
 90
        3
176
     1
 62
     5
420
      255
176
     1
290
     0
176
     1
 90
       50
176
     1
 90
       50
176
     1
 90
       50
176
     1
290
     0
176
     1
 90
       50
176
     1
 62
   256
176
     0
 40
1.0
176
     0
 90
        2
176
     1
  1
strokes_ogs.tif
176
     1
290
     0
176
     1
 40
1.0
176
     1
 40
1.0
176
     1
1001
ACAD
1000
AcDbSavedByObjectVersion
1070
     0
  0
VISUALSTYLE
  5
4FF
102
{ACAD_REACTORS
330
4F3
102
}
330
4F3
100
AcDbVisualStyle
  2

 70
    12
177
     3
291
     1
 70
    58
 90
        2
176
     1
 90
        2
176
     1
 90
        0
176
     1
 90
        0
176
     1
 40
0.6
176
     1
 40
30.0
176
     1
 62
     7
176
     1
 90
        1
176
     1
 90
        4
176
     1
 62
     7
176
     1
 62
   257
176
     1
 90
        1
176
     1
 90
        1
176
     1
 40
1.0
176
     1
 90
        8
176
     1
 62
     7
176
     1
 40
1.0
176
     1
 90
        1
176
     1
 90
        6
176
     1
 90
        2
176
     1
 62
     7
176
     1
 90
        5
176
     1
 90
        0
176
     1
 90
        0
176
     1
290
     0
176
     1
 90
        1
176
     1
 40
50.0
176
     1
 90
        0
176
     1
290
     0
176
     1
290
     1
176
     1
290
     1
176
     1
290
     0
176
     1
290
     0
176
     1
290
     0
176
     1
290
     0
176
     1
290
     0
176
     1
290
     0
176
     1
 90
       50
176
     1
 40
0.0
176
     1
 40
1.0
176
     1
 90
        0
176
     1
 62
    18
420
        0
176
     1
 90
       50
176
     1
 90
        3
176
     1
 62
     5
420
      255
176
     1
290
     0
176
     1
 90
       50
176
     1
 90
       50
176
     1
 90
       50
176
     1
290
     0
176
     1
 90
       50
176
     1
 62
   256
176
     0
 40
1.0
176
     0
 90
        2
176
     1
  1
strokes_ogs.tif
176
     1
290
     0
176
     1
 40
1.0
176
     1
 40
1.0
176
     1
1001
ACAD
1000
AcDbSavedByObjectVersion
1070
     0
  0
VISUALSTYLE
  5
503
102
{ACAD_REACTORS
330
4F3
102
}
330
4F3
100
AcDbVisualStyle
  2

 70
    16
177
     3
291
     1
 70
    58
 90
        2
176
     1
 90
        2
176
     1
 90
        3
176
     1
 90
        0
176
     1
 40
0.6
176
     1
 40
30.0
176
     1
 62
     8
176
     1
 90
        1
176
     1
 90
        4
176
     1
 62
     7
176
     1
 62
   257
176
     1
 90
        1
176
     1
 90
        1
176
     1
 40
1.0
176
     1
 90
        8
176
     1
 62
     8
176
     1
 40
1.0
176
     1
 90
        1
176
     1
 90
        6
176
     1
 90
        2
176
     1
 62
     7
176
     1
 90
        5
176
     1
 90
        0
176
     1
 90
        0
176
     1
290
     0
176
     1
 90
        1
176
     1
 40
0.0
176
     1
 90
        0
176
     1
290
     0
176
     1
290
     1
176
     1
290
     1
176
     1
290
     0
176
     1
290
     0
176
     1
290
     0
176
     1
290
     0
176
     1
290
     0
176
     1
290
     0
176
     1
 90
       50
176
     1
 40
0.0
176
     1
 40
1.0
176
     1
 90
        0
176
     1
 62
    18
420
        0
176
     1
 90
       50
176
     1
 90
        3
176
     1
 62
     5
420
      255
176
     1
290
     0
176
     1
 90
       50
176
     1
 90
       50
176
     1
 90
       50
176
     1
290
     0
176
     1
 90
       50
176
     1
 62
   256
176
     0
 40
1.0
176
     0
 90
        2
176
     1
  1
strokes_ogs.tif
176
     1
290
     0
176
     1
 40
1.0
176
     1
 40
1.0
176
     1
1001
ACAD
1000
AcDbSavedByObjectVersion
1070
     0
  0
VISUALSTYLE
  5
4FC
102
{ACAD_REACTORS
330
4F3
102
}
330
4F3
100
AcDbVisualStyle
  2

 70
     9
177
     3
291
     0
 70
    58
 90
        3
176
     1
 90
        2
176
     1
 90
        0
176
     1
 90
        0
176
     1
 40
0.6
176
     1
 40
30.0
176
     1
 62
     7
176
     1
 90
        2
176
     1
 90
        2
176
     1
 62
     7
176
     1
 62
   257
176
     1
 90
        1
176
     1
 90
        1
176
     1
 40
40.0
176
     1
 90
        8
176
     1
 62
     7
176
     1
 40
1.0
176
     1
 90
        1
176
     1
 90
        6
176
     1
 90
        2
176
     1
 62
     7
176
     1
 90
        3
176
     1
 90
        0
176
     1
 90
        0
176
     1
290
     0
176
     1
 90
        1
176
     1
 40
0.0
176
     1
 90
        0
176
     1
290
     0
176
     1
290
     1
176
     1
290
     1
176
     1
290
     0
176
     1
290
     0
176
     1
290
     0
176
     1
290
     0
176
     1
290
     0
176
     1
290
     0
176
     1
 90
       50
176
     1
 40
0.0
176
     1
 40
1.0
176
     1
 90
        0
176
     1
 62
    18
420
        0
176
     1
 90
       50
176
     1
 90
        3
176
     1
 62
     5
420
      255
176
     1
290
     0
176
     1
 90
       50
176
     1
 90
       50
176
     1
 90
       50
176
     1
290
     0
176
     1
 90
       50
176
     1
 62
   256
176
     0
 40
1.0
176
     0
 90
        2
176
     1
  1
strokes_ogs.tif
176
     1
290
     0
176
     1
 40
1.0
176
     1
 40
1.0
176
     1
1001
ACAD
1000
AcDbSavedByObjectVersion
1070
     0
  0
VISUALSTYLE
  5
4FE
102
{ACAD_REACTORS
330
4F3
102
}
330
4F3
100
AcDbVisualStyle
  2

 70
    11
177
     3
291
     1
 70
    58
 90
        2
176
     1
 90
        2
176
     1
 90
        0
176
     1
 90
        0
176
     1
 40
0.6
176
     1
 40
30.0
176
     1
 62
     7
176
     1
 90
        1
176
     1
 90
        4
176
     1
 62
     7
176
     1
 62
   257
176
     1
 90
        1
176
     1
 90
        1
176
     1
 40
1.0
176
     1
 90
        8
176
     1
 62
     7
176
     1
 40
1.0
176
     1
 90
        1
176
     1
 90
        6
176
     1
 90
        2
176
     1
 62
     7
176
     1
 90
        5
176
     1
 90
        0
176
     1
 90
        0
176
     1
290
     0
176
     1
 90
        1
176
     1
 40
-50.0
176
     1
 90
        0
176
     1
290
     0
176
     1
290
     1
176
     1
290
     1
176
     1
290
     0
176
     1
290
     0
176
     1
290
     0
176
     1
290
     0
176
     1
290
     0
176
     1
290
     0
176
     1
 90
       50
176
     1
 40
0.0
176
     1
 40
1.0
176
     1
 90
        0
176
     1
 62
    18
420
        0
176
     1
 90
       50
176
     1
 90
        3
176
     1
 62
     5
420
      255
176
     1
290
     0
176
     1
 90
       50
176
     1
 90
       50
176
     1
 90
       50
176
     1
290
     0
176
     1
 90
       50
176
     1
 62
   256
176
     0
 40
1.0
176
     0
 90
        2
176
     1
  1
strokes_ogs.tif
176
     1
290
     0
176
     1
 40
1.0
176
     1
 40
1.0
176
     1
1001
ACAD
1000
AcDbSavedByObjectVersion
1070
     0
  0
VISUALSTYLE
  5
782
102
{ACAD_REACTORS
330
4F3
102
}
330
4F3
100
AcDbVisualStyle
  2

 70
    22
177
     3
291
     1
 70
    58
 90
        2
176
     0
 90
        2
176
     0
 90
        0
176
     0
 90
        0
176
     0
 40
0.6
176
     0
 40
30.0
176
     0
 62
     7
176
     0
 90
        1
176
     0
 90
        4
176
     0
 62
     7
176
     0
 62
   257
176
     0
 90
        1
176
     0
 90
        1
176
     0
 40
1.0
176
     0
 90
        8
176
     2
 62
     7
176
     0
 40
1.0
176
     0
 90
        1
176
     0
 90
        6
176
     0
 90
        2
176
     0
 62
     7
176
     0
 90
        5
176
     0
 90
        0
176
     0
 90
        0
176
     0
290
     0
176
     0
 90
        1
176
     0
 40
0.0
176
     0
 90
        0
176
     0
290
     0
176
     1
290
     1
176
     1
290
     1
176
     1
290
     0
176
     1
290
     0
176
     1
290
     0
176
     1
290
     0
176
     1
290
     0
176
     1
290
     0
176
     1
 90
       50
176
     1
 40
0.0
176
     1
 40
1.0
176
     1
 90
        0
176
     1
 62
    18
420
        0
176
     1
 90
       50
176
     1
 90
        3
176
     1
 62
     5
420
      255
176
     1
290
     0
176
     1
 90
       50
176
     1
 90
       50
176
     1
 90
       50
176
     1
290
     0
176
     1
 90
       50
176
     1
 62
   256
176
     0
 40
1.0
176
     0
 90
        2
176
     1
  1
strokes_ogs.tif
176
     1
290
     0
176
     1
 40
1.0
176
     1
 40
1.0
176
     1
1001
ACAD
1000
AcDbSavedByObjectVersion
1070
     0
  0
VISUALSTYLE
  5
502
102
{ACAD_REACTORS
330
4F3
102
}
330
4F3
100
AcDbVisualStyle
  2

 70
    15
177
     3
291
     1
 70
    58
 90
        2
176
     1
 90
        2
176
     1
 90
        0
176
     1
 90
        0
176
     1
 40
0.6
176
     1
 40
30.0
176
     1
 62
     7
176
     1
 90
        1
176
     1
 90
        4
176
     1
 62
     7
176
     1
 62
   257
176
     1
 90
        1
176
     1
 90
        1
176
     1
 40
1.0
176
     1
 90
        8
176
     1
 62
     7
176
     1
 40
1.0
176
     1
 90
        1
176
     1
 90
        6
176
     1
 90
        2
176
     1
 62
     7
176
     1
 90
        5
176
     1
 90
        0
176
     1
 90
        0
176
     1
290
     0
176
     1
 90
        1
176
     1
 40
0.0
176
     1
 90
        0
176
     1
290
     0
176
     1
290
     1
176
     1
290
     1
176
     1
290
     0
176
     1
290
     0
176
     1
290
     0
176
     1
290
     0
176
     1
290
     0
176
     1
290
     0
176
     1
 90
       50
176
     1
 40
0.0
176
     1
 40
1.0
176
     1
 90
        0
176
     1
 62
    18
420
        0
176
     1
 90
       50
176
     1
 90
        3
176
     1
 62
     5
420
      255
176
     1
290
     0
176
     1
 90
       50
176
     1
 90
       50
176
     1
 90
       50
176
     1
290
     0
176
     1
 90
       50
176
     1
 62
   256
176
     0
 40
1.0
176
     0
 90
        2
176
     1
  1
strokes_ogs.tif
176
     1
290
     0
176
     1
 40
1.0
176
     1
 40
1.0
176
     1
1001
ACAD
1000
AcDbSavedByObjectVersion
1070
     0
  0
VISUALSTYLE
  5
4F4
102
{ACAD_REACTORS
330
4F3
102
}
330
4F3
100
AcDbVisualStyle
  2

 70
     0
177
     3
291
     1
 70
    58
 90
        2
176
     1
 90
        1
176
     1
 90
        1
176
     1
 90
        2
176
     1
 40
0.6
176
     1
 40
30.0
176
     1
 62
     7
176
     1
 90
        0
176
     1
 90
        4
176
     1
 62
     7
176
     1
 62
   257
176
     1
 90
        1
176
     1
 90
        1
176
     1
 40
1.0
176
     1
 90
        8
176
     1
 62
     7
176
     1
 40
1.0
176
     1
 90
        1
176
     1
 90
        6
176
     1
 90
        2
176
     1
 62
     7
176
     1
 90
        5
176
     1
 90
        0
176
     1
 90
        0
176
     1
290
     0
176
     1
 90
       13
176
     1
 40
0.0
176
     1
 90
        0
176
     1
290
     0
176
     1
290
     1
176
     1
290
     1
176
     1
290
     0
176
     1
290
     0
176
     1
290
     0
176
     1
290
     0
176
     1
290
     0
176
     1
290
     0
176
     1
 90
       50
176
     1
 40
0.0
176
     1
 40
1.0
176
     1
 90
        0
176
     1
 62
    18
420
        0
176
     1
 90
       50
176
     1
 90
        3
176
     1
 62
     5
420
      255
176
     1
290
     0
176
     1
 90
       50
176
     1
 90
       50
176
     1
 90
       50
176
     1
290
     0
176
     1
 90
       50
176
     1
 62
   256
176
     0
 40
1.0
176
     0
 90
        2
176
     1
  1
strokes_ogs.tif
176
     1
290
     0
176
     1
 40
1.0
176
     1
 40
1.0
176
     1
1001
ACAD
1000
AcDbSavedByObjectVersion
1070
     0
  0
VISUALSTYLE
  5
4F5
102
{ACAD_REACTORS
330
4F3
102
}
330
4F3
100
AcDbVisualStyle
  2

 70
     1
177
     3
291
     1
 70
    58
 90
        2
176
     1
 90
        1
176
     1
 90
        1
176
     1
 90
        2
176
     1
 40
0.6
176
     1
 40
30.0
176
     1
 62
     7
176
     1
 90
        1
176
     1
 90
        4
176
     1
 62
     7
176
     1
 62
   257
176
     1
 90
        1
176
     1
 90
        1
176
     1
 40
1.0
176
     1
 90
        0
176
     1
 62
   257
176
     1
 40
1.0
176
     1
 90
        1
176
     1
 90
        6
176
     1
 90
        2
176
     1
 62
     7
176
     1
 90
        5
176
     1
 90
        0
176
     1
 90
        0
176
     1
290
     0
176
     1
 90
       13
176
     1
 40
0.0
176
     1
 90
        0
176
     1
290
     0
176
     1
290
     1
176
     1
290
     1
176
     1
290
     0
176
     1
290
     0
176
     1
290
     0
176
     1
290
     0
176
     1
290
     0
176
     1
290
     0
176
     1
 90
       50
176
     1
 40
0.0
176
     1
 40
1.0
176
     1
 90
        0
176
     1
 62
    18
420
        0
176
     1
 90
       50
176
     1
 90
        3
176
     1
 62
     5
420
      255
176
     1
290
     0
176
     1
 90
       50
176
     1
 90
       50
176
     1
 90
       50
176
     1
290
     0
176
     1
 90
       50
176
     1
 62
   256
176
     0
 40
1.0
176
     0
 90
        2
176
     1
  1
strokes_ogs.tif
176
     1
290
     0
176
     1
 40
1.0
176
     1
 40
1.0
176
     1
1001
ACAD
1000
AcDbSavedByObjectVersion
1070
     0
  0
VISUALSTYLE
  5
4F6
102
{ACAD_REACTORS
330
4F3
102
}
330
4F3
100
AcDbVisualStyle
  2

 70
     2
177
     3
291
     1
 70
    58
 90
        2
176
     1
 90
        2
176
     1
 90
        1
176
     1
 90
        2
176
     1
 40
0.6
176
     1
 40
30.0
176
     1
 62
     7
176
     1
 90
        0
176
     1
 90
        4
176
     1
 62
     7
176
     1
 62
   257
176
     1
 90
        1
176
     1
 90
        1
176
     1
 40
1.0
176
     1
 90
        0
176
     1
 62
     7
176
     1
 40
1.0
176
     1
 90
        1
176
     1
 90
        6
176
     1
 90
        2
176
     1
 62
     7
176
     1
 90
        5
176
     1
 90
        0
176
     1
 90
        0
176
     1
290
     0
176
     1
 90
       13
176
     1
 40
0.0
176
     1
 90
        0
176
     1
290
     0
176
     1
290
     1
176
     1
290
     1
176
     1
290
     0
176
     1
290
     0
176
     1
290
     0
176
     1
290
     0
176
     1
290
     0
176
     1
290
     0
176
     1
 90
       50
176
     1
 40
0.0
176
     1
 40
1.0
176
     1
 90
        0
176
     1
 62
    18
420
        0
176
     1
 90
       50
176
     1
 90
        3
176
     1
 62
     5
420
      255
176
     1
290
     0
176
     1
 90
       50
176
     1
 90
       50
176
     1
 90
       50
176
     1
290
     0
176
     1
 90
       50
176
     1
 62
   256
176
     0
 40
1.0
176
     0
 90
        2
176
     1
  1
strokes_ogs.tif
176
     1
290
     0
176
     1
 40
1.0
176
     1
 40
1.0
176
     1
1001
ACAD
1000
AcDbSavedByObjectVersion
1070
     0
  0
VISUALSTYLE
  5
4F7
102
{ACAD_REACTORS
330
4F3
102
}
330
4F3
100
AcDbVisualStyle
  2

 70
     3
177
     3
291
     1
 70
    58
 90
        2
176
     1
 90
        2
176
     1
 90
        1
176
     1
 90
        2
176
     1
 40
0.6
176
     1
 40
30.0
176
     1
 62
     7
176
     1
 90
        1
176
     1
 90
        4
176
     1
 62
     7
176
     1
 62
   257
176
     1
 90
        1
176
     1
 90
        1
176
     1
 40
1.0
176
     1
 90
        0
176
     1
 62
   257
176
     1
 40
1.0
176
     1
 90
        1
176
     1
 90
        6
176
     1
 90
        2
176
     1
 62
     7
176
     1
 90
        5
176
     1
 90
        0
176
     1
 90
        0
176
     1
290
     0
176
     1
 90
       13
176
     1
 40
0.0
176
     1
 90
        0
176
     1
290
     0
176
     1
290
     1
176
     1
290
     1
176
     1
290
     0
176
     1
290
     0
176
     1
290
     0
176
     1
290
     0
176
     1
290
     0
176
     1
290
     0
176
     1
 90
       50
176
     1
 40
0.0
176
     1
 40
1.0
176
     1
 90
        0
176
     1
 62
    18
420
        0
176
     1
 90
       50
176
     1
 90
        3
176
     1
 62
     5
420
      255
176
     1
290
     0
176
     1
 90
       50
176
     1
 90
       50
176
     1
 90
       50
176
     1
290
     0
176
     1
 90
       50
176
     1
 62
   256
176
     0
 40
1.0
176
     0
 90
        2
176
     1
  1
strokes_ogs.tif
176
     1
290
     0
176
     1
 40
1.0
176
     1
 40
1.0
176
     1
1001
ACAD
1000
AcDbSavedByObjectVersion
1070
     0
  0
VISUALSTYLE
  5
FFC
102
{ACAD_REACTORS
330
4F3
102
}
330
4F3
100
AcDbVisualStyle
  2

 70
     6
177
     3
291
     0
 70
    58
 90
        1
176
     1
 90
        2
176
     1
 90
        2
176
     1
 90
        0
176
     1
 40
0.6
176
     1
 40
30.0
176
     1
 62
     7
176
     1
 90
        2
176
     1
 90
        2
176
     1
 62
     7
176
     1
 62
   257
176
     1
 90
        2
176
     1
 90
        1
176
     1
 40
40.0
176
     1
 90
        0
176
     1
 62
   257
176
     1
 40
1.0
176
     1
 90
        1
176
     1
 90
        6
176
     1
 90
        2
176
     1
 62
     7
176
     1
 90
        3
176
     1
 90
        0
176
     1
 90
        0
176
     1
290
     0
176
     1
 90
        1
176
     1
 40
0.0
176
     1
 90
        0
176
     1
290
     0
176
     1
290
     1
176
     1
290
     1
176
     1
290
     0
176
     1
290
     0
176
     1
290
     0
176
     1
290
     0
176
     1
290
     0
176
     1
290
     0
176
     1
 90
       50
176
     1
 40
0.0
176
     1
 40
1.0
176
     1
 90
        0
176
     1
 62
    18
420
        0
176
     1
 90
       50
176
     1
 90
        3
176
     1
 62
     5
420
      255
176
     1
290
     0
176
     1
 90
       50
176
     1
 90
       50
176
     1
 90
       50
176
     1
290
     0
176
     1
 90
       50
176
     1
 62
   256
176
     0
 40
1.0
176
     0
 90
        2
176
     1
  1
strokes_ogs.tif
176
     1
290
     0
176
     1
 40
1.0
176
     1
 40
1.0
176
     1
1001
ACAD
1000
AcDbSavedByObjectVersion
1070
     0
  0
VISUALSTYLE
  5
780
102
{ACAD_REACTORS
330
4F3
102
}
330
4F3
100
AcDbVisualStyle
  2

 70
    20
177
     3
291
     1
 70
    58
 90
        2
176
     0
 90
        2
176
     0
 90
        0
176
     0
 90
        0
176
     0
 40
0.6
176
     0
 40
30.0
176
     0
 62
     7
176
     0
 90
        1
176
     0
 90
        4
176
     0
 62
     7
176
     0
 62
   257
176
     0
 90
        1
176
     0
 90
        1
176
     0
 40
1.0
176
     0
 90
       10
176
     2
 62
     7
176
     0
 40
1.0
176
     0
 90
        1
176
     0
 90
        6
176
     0
 90
        2
176
     0
 62
     7
176
     0
 90
        5
176
     0
 90
        0
176
     0
 90
        0
176
     0
290
     0
176
     0
 90
        1
176
     0
 40
0.0
176
     0
 90
        0
176
     0
290
     0
176
     1
290
     1
176
     1
290
     1
176
     1
290
     0
176
     1
290
     0
176
     1
290
     0
176
     1
290
     0
176
     1
290
     0
176
     1
290
     0
176
     1
 90
       50
176
     1
 40
0.0
176
     1
 40
1.0
176
     1
 90
        0
176
     1
 62
    18
420
        0
176
     1
 90
       50
176
     1
 90
        3
176
     1
 62
     5
420
      255
176
     1
290
     0
176
     1
 90
       50
176
     1
 90
       50
176
     1
 90
       50
176
     1
290
     0
176
     1
 90
       50
176
     1
 62
   256
176
     0
 40
1.0
176
     0
 90
        2
176
     1
  1
strokes_ogs.tif
176
     1
290
     0
176
     1
 40
1.0
176
     1
 40
1.0
176
     1
1001
ACAD
1000
AcDbSavedByObjectVersion
1070
     0
  0
VISUALSTYLE
  5
501
102
{ACAD_REACTORS
330
4F3
102
}
330
4F3
100
AcDbVisualStyle
  2

 70
    14
177
     3
291
     1
 70
    58
 90
        2
176
     1
 90
        2
176
     1
 90
        0
176
     1
 90
        0
176
     1
 40
0.6
176
     1
 40
30.0
176
     1
 62
     7
176
     1
 90
        1
176
     1
 90
        4
176
     1
 62
     7
176
     1
 62
   257
176
     1
 90
        7
176
     1
 90
        7
176
     1
 40
1.0
176
     1
 90
        8
176
     1
 62
     7
176
     1
 40
1.0
176
     1
 90
        1
176
     1
 90
        6
176
     1
 90
        2
176
     1
 62
     7
176
     1
 90
        5
176
     1
 90
        0
176
     1
 90
        0
176
     1
290
     0
176
     1
 90
        1
176
     1
 40
0.0
176
     1
 90
        0
176
     1
290
     0
176
     1
290
     1
176
     1
290
     1
176
     1
290
     0
176
     1
290
     0
176
     1
290
     0
176
     1
290
     0
176
     1
290
     0
176
     1
290
     0
176
     1
 90
       50
176
     1
 40
0.0
176
     1
 40
1.0
176
     1
 90
        0
176
     1
 62
    18
420
        0
176
     1
 90
       50
176
     1
 90
        3
176
     1
 62
     5
420
      255
176
     1
290
     0
176
     1
 90
       50
176
     1
 90
       50
176
     1
 90
       50
176
     1
290
     0
176
     1
 90
       50
176
     1
 62
   256
176
     0
 40
1.0
176
     0
 90
        2
176
     1
  1
strokes_ogs.tif
176
     1
290
     0
176
     1
 40
1.0
176
     1
 40
1.0
176
     1
1001
ACAD
1000
AcDbSavedByObjectVersion
1070
     0
  0
VISUALSTYLE
  5
781
102
{ACAD_REACTORS
330
4F3
102
}
330
4F3
100
AcDbVisualStyle
  2

 70
    21
177
     3
291
     1
 70
    58
 90
        2
176
     0
 90
        2
176
     0
 90
        0
176
     0
 90
        0
176
     0
 40
0.6
176
     0
 40
30.0
176
     0
 62
     7
176
     0
 90
        1
176
     0
 90
        4
176
     0
 62
     7
176
     0
 62
   257
176
     0
 90
        1
176
     0
 90
        1
176
     0
 40
1.0
176
     0
 90
        9
176
     2
 62
     7
176
     0
 40
1.0
176
     0
 90
        1
176
     0
 90
        6
176
     0
 90
        2
176
     0
 62
     7
176
     0
 90
        5
176
     0
 90
        0
176
     0
 90
        0
176
     0
290
     0
176
     0
 90
        1
176
     0
 40
0.0
176
     0
 90
        0
176
     0
290
     0
176
     1
290
     1
176
     1
290
     1
176
     1
290
     0
176
     1
290
     0
176
     1
290
     0
176
     1
290
     0
176
     1
290
     0
176
     1
290
     0
176
     1
 90
       50
176
     1
 40
0.0
176
     1
 40
1.0
176
     1
 90
        0
176
     1
 62
    18
420
        0
176
     1
 90
       50
176
     1
 90
        3
176
     1
 62
     5
420
      255
176
     1
290
     0
176
     1
 90
       50
176
     1
 90
       50
176
     1
 90
       50
176
     1
290
     0
176
     1
 90
       50
176
     1
 62
   256
176
     0
 40
1.0
176
     0
 90
        2
176
     1
  1
strokes_ogs.tif
176
     1
290
     0
176
     1
 40
1.0
176
     1
 40
1.0
176
     1
1001
ACAD
1000
AcDbSavedByObjectVersion
1070
     0
  0
VISUALSTYLE
  5
4FD
102
{ACAD_REACTORS
330
4F3
102
}
330
4F3
100
AcDbVisualStyle
  2

 70
     8
177
     3
291
     0
 70
    58
 90
        2
176
     1
 90
        2
176
     1
 90
        0
176
     1
 90
        0
176
     1
 40
0.6
176
     1
 40
30.0
176
     1
 62
     7
176
     1
 90
        1
176
     1
 90
        0
176
     1
 62
     7
176
     1
 62
   257
176
     1
 90
        1
176
     1
 90
        1
176
     1
 40
1.0
176
     1
 90
        8
176
     1
 62
     8
176
     1
 40
1.0
176
     1
 90
        1
176
     1
 90
        6
176
     1
 90
        2
176
     1
 62
     7
176
     1
 90
        5
176
     1
 90
        0
176
     1
 90
        0
176
     1
290
     0
176
     1
 90
       13
176
     1
 40
0.0
176
     1
 90
        0
176
     1
290
     0
176
     1
290
     1
176
     1
290
     1
176
     1
290
     0
176
     1
290
     0
176
     1
290
     0
176
     1
290
     0
176
     1
290
     0
176
     1
290
     0
176
     1
 90
       50
176
     1
 40
0.0
176
     1
 40
1.0
176
     1
 90
        0
176
     1
 62
    18
420
        0
176
     1
 90
       50
176
     1
 90
        3
176
     1
 62
     5
420
      255
176
     1
290
     0
176
     1
 90
       50
176
     1
 90
       50
176
     1
 90
       50
176
     1
290
     0
176
     1
 90
       50
176
     1
 62
   256
176
     0
 40
1.0
176
     0
 90
        2
176
     1
  1
strokes_ogs.tif
176
     1
290
     0
176
     1
 40
1.0
176
     1
 40
1.0
176
     1
1001
ACAD
1000
AcDbSavedByObjectVersion
1070
     0
  0
VISUALSTYLE
  5
1001
102
{ACAD_REACTORS
330
4F3
102
}
330
4F3
100
AcDbVisualStyle
  2

 70
    27
177
     3
291
     0
 70
    58
 90
        2
176
     1
 90
        2
176
     1
 90
        1
176
     1
 90
        2
176
     1
 40
0.6
176
     1
 40
30.0
176
     1
 62
     7
176
     1
 90
        0
176
     1
 90
        4
176
     1
 62
     7
176
     1
 62
   257
176
     1
 90
        1
176
     1
 90
        1
176
     1
 40
1.0
176
     1
 90
        8
176
     1
 62
   257
176
     1
 40
1.0
176
     1
 90
        1
176
     1
 90
        6
176
     1
 90
        2
176
     1
 62
     8
176
     1
 90
        3
176
     1
 90
        0
176
     1
 90
        0
176
     1
290
     0
176
     1
 90
        5
176
     1
 40
0.0
176
     1
 90
        0
176
     1
290
     0
176
     1
290
     1
176
     1
290
     1
176
     1
290
     0
176
     1
290
     0
176
     1
290
     0
176
     1
290
     0
176
     1
290
     0
176
     1
290
     0
176
     1
 90
       50
176
     1
 40
0.0
176
     1
 40
1.0
176
     1
 90
        0
176
     1
 62
    18
420
        0
176
     1
 90
       50
176
     1
 90
        3
176
     1
 62
     5
420
      255
176
     1
290
     0
176
     1
 90
       50
176
     1
 90
       50
176
     1
 90
       50
176
     1
290
     0
176
     1
 90
       50
176
     1
 62
   256
176
     0
 40
1.0
176
     0
 90
        2
176
     1
  1
strokes_ogs.tif
176
     1
290
     0
176
     1
 40
1.0
176
     1
 40
1.0
176
     1
1001
ACAD
1000
AcDbSavedByObjectVersion
1070
     0
  0
VISUALSTYLE
  5
1000
102
{ACAD_REACTORS
330
4F3
102
}
330
4F3
100
AcDbVisualStyle
  2

 70
    26
177
     3
291
     0
 70
    58
 90
        2
176
     1
 90
        2
176
     1
 90
        1
176
     1
 90
        2
176
     1
 40
0.6
176
     1
 40
30.0
176
     1
 62
     7
176
     1
 90
        1
176
     1
 90
       10
176
     1
 62
     7
176
     1
 62
   257
176
     1
 90
        2
176
     1
 90
        1
176
     1
 40
1.0
176
     1
 90
        8
176
     1
 62
   257
176
     1
 40
1.0
176
     1
 90
        1
176
     1
 90
        6
176
     1
 90
        2
176
     1
 62
     7
176
     1
 90
        3
176
     1
 90
        0
176
     1
 90
        0
176
     1
290
     0
176
     1
 90
        5
176
     1
 40
0.0
176
     1
 90
        0
176
     1
290
     0
176
     1
290
     1
176
     1
290
     1
176
     1
290
     0
176
     1
290
     0
176
     1
290
     0
176
     1
290
     0
176
     1
290
     0
176
     1
290
     0
176
     1
 90
       50
176
     1
 40
0.0
176
     1
 40
1.0
176
     1
 90
        0
176
     1
 62
    18
420
        0
176
     1
 90
       50
176
     1
 90
        3
176
     1
 62
     5
420
      255
176
     1
290
     0
176
     1
 90
       50
176
     1
 90
       50
176
     1
 90
       50
176
     1
290
     0
176
     1
 90
       50
176
     1
 62
   256
176
     0
 40
1.0
176
     0
 90
        2
176
     1
  1
strokes_ogs.tif
176
     1
290
     0
176
     1
 40
1.0
176
     1
 40
1.0
176
     1
1001
ACAD
1000
AcDbSavedByObjectVersion
1070
     0
  0
VISUALSTYLE
  5
FFD
102
{ACAD_REACTORS
330
4F3
102
}
330
4F3
100
AcDbVisualStyle
  2

 70
    23
177
     3
291
     0
 70
    58
 90
        2
176
     1
 90
        2
176
     1
 90
        3
176
     1
 90
        0
176
     1
 40
0.6
176
     1
 40
30.0
176
     1
 62
     7
176
     1
 90
        2
176
     1
 90
        2
176
     1
 62
     7
176
     1
 62
     7
176
     1
 90
        1
176
     1
 90
        1
176
     1
 40
40.0
176
     1
 90
        8
176
     1
 62
     7
176
     1
 40
1.0
176
     1
 90
        1
176
     1
 90
        6
176
     1
 90
        2
176
     1
 62
     7
176
     1
 90
        3
176
     1
 90
        0
176
     1
 90
        0
176
     1
290
     0
176
     1
 90
        1
176
     1
 40
0.0
176
     1
 90
        0
176
     1
290
     0
176
     1
290
     1
176
     1
290
     1
176
     1
290
     0
176
     1
290
     0
176
     1
290
     0
176
     1
290
     0
176
     1
290
     0
176
     1
290
     0
176
     1
 90
       50
176
     1
 40
0.0
176
     1
 40
1.0
176
     1
 90
        0
176
     1
 62
    18
420
        0
176
     1
 90
       50
176
     1
 90
        3
176
     1
 62
     5
420
      255
176
     1
290
     0
176
     1
 90
       50
176
     1
 90
       50
176
     1
 90
       50
176
     1
290
     0
176
     1
 90
       50
176
     1
 62
   256
176
     0
 40
1.0
176
     0
 90
        2
176
     1
  1
strokes_ogs.tif
176
     1
290
     0
176
     1
 40
1.0
176
     1
 40
1.0
176
     1
1001
ACAD
1000
AcDbSavedByObjectVersion
1070
     0
  0
VISUALSTYLE
  5
FFE
102
{ACAD_REACTORS
330
4F3
102
}
330
4F3
100
AcDbVisualStyle
  2

 70
    24
177
     3
291
     0
 70
    58
 90
        1
176
     1
 90
        2
176
     1
 90
        2
176
     1
 90
        0
176
     1
 40
0.6
176
     1
 40
30.0
176
     1
 62
     7
176
     1
 90
        2
176
     1
 90
        2
176
     1
 62
     7
176
     1
 62
     7
176
     1
 90
        1
176
     1
 90
        1
176
     1
 40
40.0
176
     1
 90
       11
176
     1
 62
     7
176
     1
 40
1.0
176
     1
 90
        1
176
     1
 90
        6
176
     1
 90
        2
176
     1
 62
     7
176
     1
 90
        6
176
     1
 90
        0
176
     1
 90
        0
176
     1
290
     0
176
     1
 90
        1
176
     1
 40
0.0
176
     1
 90
        0
176
     1
290
     0
176
     1
290
     1
176
     1
290
     1
176
     1
290
     0
176
     1
290
     0
176
     1
290
     0
176
     1
290
     0
176
     1
290
     0
176
     1
290
     0
176
     1
 90
       50
176
     1
 40
0.0
176
     1
 40
1.0
176
     1
 90
        0
176
     1
 62
    18
420
        0
176
     1
 90
       50
176
     1
 90
        3
176
     1
 62
     5
420
      255
176
     1
290
     0
176
     1
 90
       50
176
     1
 90
       50
176
     1
 90
       50
176
     1
290
     0
176
     1
 90
       50
176
     1
 62
   256
176
     0
 40
1.0
176
     0
 90
        2
176
     1
  1
strokes_ogs.tif
176
     1
290
     0
176
     1
 40
1.0
176
     1
 40
1.0
176
     1
1001
ACAD
1000
AcDbSavedByObjectVersion
1070
     0
  0
VISUALSTYLE
  5
500
102
{ACAD_REACTORS
330
4F3
102
}
330
4F3
100
AcDbVisualStyle
  2

 70
    13
177
     3
291
     1
 70
    58
 90
        2
176
     1
 90
        2
176
     1
 90
        0
176
     1
 90
        0
176
     1
 40
0.6
176
     1
 40
30.0
176
     1
 62
     7
176
     1
 90
        1
176
     1
 90
        4
176
     1
 62
     7
176
     1
 62
   257
176
     1
 90
        1
176
     1
 90
        1
176
     1
 40
1.0
176
     1
 90
       12
176
     1
 62
     7
176
     1
 40
1.0
176
     1
 90
        1
176
     1
 90
        6
176
     1
 90
        2
176
     1
 62
     7
176
     1
 90
        5
176
     1
 90
        0
176
     1
 90
        0
176
     1
290
     0
176
     1
 90
        1
176
     1
 40
0.0
176
     1
 90
        0
176
     1
290
     0
176
     1
290
     1
176
     1
290
     1
176
     1
290
     0
176
     1
290
     0
176
     1
290
     0
176
     1
290
     0
176
     1
290
     0
176
     1
290
     0
176
     1
 90
       50
176
     1
 40
0.0
176
     1
 40
1.0
176
     1
 90
        0
176
     1
 62
    18
420
        0
176
     1
 90
       50
176
     1
 90
        3
176
     1
 62
     5
420
      255
176
     1
290
     0
176
     1
 90
       50
176
     1
 90
       50
176
     1
 90
       50
176
     1
290
     0
176
     1
 90
       50
176
     1
 62
   256
176
     0
 40
1.0
176
     0
 90
        2
176
     1
  1
strokes_ogs.tif
176
     1
290
     0
176
     1
 40
1.0
176
     1
 40
1.0
176
     1
1001
ACAD
1000
AcDbSavedByObjectVersion
1070
     0
  0
VISUALSTYLE
  5
FFB
102
{ACAD_REACTORS
330
4F3
102
}
330
4F3
100
AcDbVisualStyle
  2

 70
     5
177
     3
291
     0
 70
    58
 90
        0
176
     1
 90
        2
176
     1
 90
        0
176
     1
 90
        0
176
     1
 40
0.6
176
     1
 40
30.0
176
     1
 62
     7
176
     1
 90
        1
176
     1
 90
        4
176
     1
 62
     7
176
     1
 62
   257
176
     1
 90
        1
176
     1
 90
        1
176
     1
 40
1.0
176
     1
 90
        0
176
     1
 62
   257
176
     1
 40
1.0
176
     1
 90
        1
176
     1
 90
        6
176
     1
 90
        2
176
     1
 62
     7
176
     1
 90
        3
176
     1
 90
        0
176
     1
 90
        0
176
     1
290
     0
176
     1
 90
        1
176
     1
 40
0.0
176
     1
 90
        0
176
     1
290
     0
176
     1
290
     1
176
     1
290
     1
176
     1
290
     0
176
     1
290
     0
176
     1
290
     0
176
     1
290
     0
176
     1
290
     0
176
     1
290
     0
176
     1
 90
       50
176
     1
 40
0.0
176
     1
 40
1.0
176
     1
 90
        0
176
     1
 62
    18
420
        0
176
     1
 90
       50
176
     1
 90
        3
176
     1
 62
     5
420
      255
176
     1
290
     0
176
     1
 90
       50
176
     1
 90
       50
176
     1
 90
       50
176
     1
290
     0
176
     1
 90
       50
176
     1
 62
   256
176
     0
 40
1.0
176
     0
 90
        2
176
     1
  1
strokes_ogs.tif
176
     1
290
     0
176
     1
 40
1.0
176
     1
 40
1.0
176
     1
1001
ACAD
1000
AcDbSavedByObjectVersion
1070
     0
  0
VISUALSTYLE
  5
FFF
102
{ACAD_REACTORS
330
4F3
102
}
330
4F3
100
AcDbVisualStyle
  2

 70
    25
177
     3
291
     0
 70
    58
 90
        2
176
     1
 90
        2
176
     1
 90
        1
176
     1
 90
        1
176
     1
 40
0.5
176
     1
 40
30.0
176
     1
 62
     7
176
     1
 90
        1
176
     1
 90
        0
176
     1
 62
     7
176
     1
 62
   257
176
     1
 90
        1
176
     1
 90
        1
176
     1
 40
1.0
176
     1
 90
        8
176
     1
 62
     7
176
     1
 40
1.0
176
     1
 90
        1
176
     1
 90
        6
176
     1
 90
        2
176
     1
 62
     7
176
     1
 90
        3
176
     1
 90
        0
176
     1
 90
        0
176
     1
290
     0
176
     1
 90
       13
176
     1
 40
0.0
176
     1
 90
        0
176
     1
290
     0
176
     1
290
     1
176
     1
290
     1
176
     1
290
     0
176
     1
290
     0
176
     1
290
     0
176
     1
290
     0
176
     1
290
     0
176
     1
290
     0
176
     1
 90
       50
176
     1
 40
0.0
176
     1
 40
1.0
176
     1
 90
        0
176
     1
 62
    18
420
        0
176
     1
 90
       50
176
     1
 90
        3
176
     1
 62
     5
420
      255
176
     1
290
     0
176
     1
 90
       50
176
     1
 90
       50
176
     1
 90
       50
176
     1
290
     0
176
     1
 90
       50
176
     1
 62
   256
176
     0
 40
1.0
176
     0
 90
        2
176
     1
  1
strokes_ogs.tif
176
     1
290
     0
176
     1
 40
1.0
176
     1
 40
1.0
176
     1
1001
ACAD
1000
AcDbSavedByObjectVersion
1070
     0
  0
DICTIONARYVAR
  5
117A
102
{ACAD_REACTORS
330
1174
102
}
330
1174
100
DictionaryVariables
280
     0
  1
1:1
  0
DICTIONARYVAR
  5
1176
102
{ACAD_REACTORS
330
1174
102
}
330
1174
100
DictionaryVariables
280
     0
  1
STANDARD
  0
DICTIONARYVAR
  5
1175
102
{ACAD_REACTORS
330
1174
102
}
330
1174
100
DictionaryVariables
280
     0
  1
STANDARD
  0
DICTIONARYVAR
  5
1177
102
{ACAD_REACTORS
330
1174
102
}
330
1174
100
DictionaryVariables
280
     0
  1
Metric50
  0
DICTIONARYVAR
  5
1178
102
{ACAD_REACTORS
330
1174
102
}
330
1174
100
DictionaryVariables
280
     0
  1
Metric50
  0
DICTIONARYVAR
  5
117C
102
{ACAD_REACTORS
330
1174
102
}
330
1174
100
DictionaryVariables
280
     0
  1
1
  0
DICTIONARYVAR
  5
117D
102
{ACAD_REACTORS
330
1174
102
}
330
1174
100
DictionaryVariables
280
     0
  1
15
  0
DICTIONARYVAR
  5
117B
102
{ACAD_REACTORS
330
1174
102
}
330
1174
100
DictionaryVariables
280
     0
  1
0
  0
DICTIONARYVAR
  5
1179
102
{ACAD_REACTORS
330
1174
102
}
330
1174
100
DictionaryVariables
280
     0
  1
0
  0
XRECORD
  5
FB1
102
{ACAD_REACTORS
330
24F
102
}
330
24F
100
AcDbXrecord
280
     1
1000
ADE02C001
1070
     1
1070
     0
1002
{
1002
}
1002
{
1002
}
1002
{
1002
}
1000

  0
XRECORD
  5
E24
102
{ACAD_REACTORS
330
E23
102
}
330
E23
100
AcDbXrecord
280
     1
  0
ACAD_PROXY_OBJECT
  5
5BC
102
{ACAD_REACTORS
330
5AF
102
}
330
5AF
100
AcDbProxyObject
 90
      499
 91
      517
 95
   983063
 70
     0
161
                10
310
404C
 94
        0
1001
ACAD
1000
AcRTDxfName
1000
DMSTYLIZEDENTITIESTABLE
1000
AcRTDxfName
1000
DMSTYLIZEDENTITIESTABLE
  0
DICTIONARY
  5
5BD
102
{ACAD_REACTORS
330
5AF
102
}
330
5AF
100
AcDbDictionary
280
     1
281
     1
  0
DATATABLE
  5
5B3
102
{ACAD_REACTORS
330
5AF
102
}
330
5AF
100
AcDbDataTable
 70
     2
 90
        4
 91
       15
  1

 92
        3
  2
OriginalClassName
  3
AcMapDMDefaultStyle
  3
AcMapDMEntityStyle
  3
AcMapDMRasterStyle
  3
AcMapDMSEAnnotationStyle
  3
AcMapDMSEHatchStyle
  3
AcMapDMSETextStyle
  3
AcMapDMThematicStyle
  3
AcMapDMBaseElement
  3
AcMapDMAttachedDwgsQueryElement
  3
AcMapDMFeatureElement
  3
AcMapDMLayerElement
  3
AcMapDMCurrentDwgQueryElement
  3
AcMapDMRasterElement
  3
AcMapDMTopoElement
  3
AcMapDMTopoQueryElement
 92
        3
  2
ProxyDisplayName
  3
Default
  3
Entity
  3
Raster
  3
Annotation
  3
Hatch
  3
Text
  3
Thematic
  3
Map Base
  3
Ade Query
  3
Feature Class
  3
Layer
  3
Ade Project Query
  3
Raster
  3
Topology
  3
Topology Query
 92
        1
  2
CustomObjectType
 93
        2
 93
        2
 93
        2
 93
        2
 93
        2
 93
        2
 93
        2
 93
        1
 93
        1
 93
        1
 93
        1
 93
        1
 93
        1
 93
        1
 93
        1
 92
        1
  2
StyleCoExistanceType
 93
        1
 93
        1
 93
        1
 93
        1
 93
        1
 93
        1
 93
        2
 93
        0
 93
        0
 93
        0
 93
        0
 93
        0
 93
        0
 93
        0
 93
        0
  0
ACAD_PROXY_OBJECT
  5
5B0
102
{ACAD_REACTORS
330
5AF
102
}
330
5AF
100
AcDbProxyObject
 90
      499
 91
      508
 95
   983063
 70
     0
161
               144
310
405010043111A5CDC1B185E53585C0C4010165
350
5B4
340
5B4
340
5B4
 94
        0
1001
ACAD
1000
AcRTDxfName
1000
DMMAPMANAGER
1000
AcRTDxfName
1000
DMMAPMANAGER
  0
ACAD_PROXY_OBJECT
  5
5B1
102
{ACAD_REACTORS
330
5AF
102
}
330
5AF
100
AcDbProxyObject
 90
      499
 91
      509
 95
   983063
 70
     0
161
                20
310
40501C
360
5B2
 94
        0
1001
ACAD
1000
AcRTDxfName
1000
DMSTYLELIBRARY
1000
AcRTDxfName
1000
DMSTYLELIBRARY
  0
DICTIONARY
  5
7B9
102
{ACAD_REACTORS
330
5AF
102
}
330
5AF
100
AcDbDictionary
281
     1
  0
FIELD
  5
E77
102
{ACAD_REACTORS
330
E76
102
}
330
E76
100
AcDbField
  1
_text
  2
%<\_FldIdx 0>%
 90
        1
360
E78
 97
        0
 91
       63
 92
        0
 94
       13
 95
        2
 96
        0
300

 93
        1
  6
ACFD_FIELDTEXT_CHECKSUM
 93
        2
 90
        2
140
13735.0
 94
        0
300

302

304
ACVALUE_END
  7
ACFD_FIELD_VALUE
 93
        3
 90
        0
 94
        0
300

302

304
ACVALUE_END
301

 98
        0
  0
FIELD
  5
E7D
102
{ACAD_REACTORS
330
E7C
102
}
330
E7C
100
AcDbField
  1
_text
  2
%<\_FldIdx 0>%
 90
        1
360
E7E
 97
        0
 91
       63
 92
        0
 94
       13
 95
        2
 96
        0
300

 93
        1
  6
ACFD_FIELDTEXT_CHECKSUM
 93
        2
 90
        2
140
632769.0
 94
        0
300

302

304
ACVALUE_END
  7
ACFD_FIELD_VALUE
 93
        3
 90
        0
 94
        0
300

302

304
ACVALUE_END
301

 98
        0
  0
DICTIONARY
  5
1182
330
1005
100
AcDbDictionary
280
     1
281
     1
  3
ACAD_XREC_ROUNDTRIP
360
1183
  0
DICTIONARY
  5
7DB
330
51
100
AcDbDictionary
280
     1
281
     1
  0
DICTIONARY
  5
7A7
330
22
100
AcDbDictionary
280
     1
281
     1
  0
DICTIONARY
  5
1120
330
4F1
100
AcDbDictionary
280
     1
281
     1
  3
ACAD_XREC_ROUNDTRIP
360
1121
  0
DICTIONARY
  5
111E
330
4F0
100
AcDbDictionary
280
     1
281
     1
  3
ACAD_XREC_ROUNDTRIP
360
111F
  0
DICTIONARY
  5
1122
330
4F2
100
AcDbDictionary
280
     1
281
     1
  3
ACAD_XREC_ROUNDTRIP
360
1123
  0
DICTIONARY
  5
1180
330
1003
100
AcDbDictionary
280
     1
281
     1
  3
ACAD_XREC_ROUNDTRIP
360
1181
  0
DICTIONARY
  5
7FE
330
5B5
100
AcDbDictionary
280
     1
281
     1
  3
ACAD_ROUNDTRIP_2008_TABLESTYLE_CELLSTYLEMAP
360
117F
  0
DICTIONARY
  5
7FC
330
505
100
AcDbDictionary
280
     1
281
     1
  3
ACAD_ROUNDTRIP_2008_TABLESTYLE_CELLSTYLEMAP
360
117E
  0
ACAD_PROXY_OBJECT
  5
5B4
102
{ACAD_REACTORS
330
5B0
330
5B6
102
}
330
5B0
100
AcDbProxyObject
 90
      499
 91
      512
 95
   983063
 70
     0
161
               499
310
40508566F72676162650040501405013FFFFFFFFFFFFBDFE8147FFFFFFFFFFFF7BFE8000000000000108083A632B3B2B732002027FFFFFFFFFFFF7BFC7202C
330
0
360
5B6
360
5B7
 94
        0
1001
ACAD
1000
AcRTDxfName
1000
DMMAP
1000
AcRTDxfName
1000
DMMAP
  0
ACAD_PROXY_OBJECT
  5
5B2
102
{ACAD_REACTORS
330
5B1
102
}
330
0
100
AcDbProxyObject
 90
      499
 91
      510
 95
   983063
 70
     0
161
               126
310
4050D416E7A656967657374696C65008
 94
        0
1001
ACAD
1000
AcRTDxfName
1000
DMSTYLECATEGORY
1000
AcRTDxfName
1000
DMSTYLECATEGORY
  0
FIELD
  5
E78
330
E77
100
AcDbField
  1
AcVar
  2
\AcVar Filename \f "%fn6"
 90
        0
 97
        0
 91
       63
 92
        0
 94
       59
 95
        2
 96
        0
300

 93
        1
  6
Variable
 93
        0
 90
        4
  1
Filename
 94
        0
300

302

304
ACVALUE_END
  7
ACFD_FIELD_VALUE
 93
        4
 90
        4
  1
S:\CAD\GA CAFM-Handbuch_Versionierung\Version_1.7_2017_06_01\Teil II Pflichtenheft\Plankoepfe\Plankopf_V1_7.dxf
 94
        0
300
%fn6
302
Plankopf_V1_7.dxf
304
ACVALUE_END
301
Plankopf_V1_7.dxf
 98
       17
  0
FIELD
  5
E7E
330
E7D
100
AcDbField
  1
AcVar
  2
\AcVar Filename \f "%fn7"
 90
        0
 97
        0
 91
       63
 92
        0
 94
       59
 95
        2
 96
        0
300

 93
        1
  6
Variable
 93
        0
 90
        4
  1
Filename
 94
        0
300

302

304
ACVALUE_END
  7
ACFD_FIELD_VALUE
 93
        4
 90
        4
  1
S:\CAD\GA CAFM-Handbuch_Versionierung\Version_1.7_2017_06_01\Teil II Pflichtenheft\Plankoepfe\Plankopf_V1_7.dxf
 94
        0
300
%fn7
302
S:\CAD\GA CAFM-Handbuch_Versionierung\Version_1.7_2017_06_01\Teil II Pflichtenheft\Plankoepfe\Plankopf_V1_7.dxf
304
ACVALUE_END
301
S:\CAD\GA CAFM-Handbuch_Versionierung\Version_1.7_2017_06_01\Teil II Pflichtenheft\Plankoepfe\Plankopf_V1_7.dxf
 98
      111
  0
XRECORD
  5
1183
102
{ACAD_REACTORS
330
1182
102
}
330
1182
100
AcDbXrecord
280
     1
102
DISPLAYNAME
  1
Metric50
102
FLAGS
 90
        0
  0
XRECORD
  5
1121
102
{ACAD_REACTORS
330
1120
102
}
330
1120
100
AcDbXrecord
280
     1
102
MATERIAL
148
0.0
149
0.0
149
0.0
 93
        0
 94
      127
282
     0
 72
     1
 77
     1
171
     1
175
     1
179
     1
273
     0
  0
XRECORD
  5
111F
102
{ACAD_REACTORS
330
111E
102
}
330
111E
100
AcDbXrecord
280
     1
102
MATERIAL
148
0.0
149
0.0
149
0.0
 93
        0
 94
      127
282
     0
 72
     1
 77
     1
171
     1
175
     1
179
     1
273
     0
  0
XRECORD
  5
1123
102
{ACAD_REACTORS
330
1122
102
}
330
1122
100
AcDbXrecord
280
     1
102
MATERIAL
148
0.0
149
0.0
149
0.0
 93
        0
 94
      127
282
     0
 72
     1
 77
     1
171
     1
175
     1
179
     1
273
     0
  0
XRECORD
  5
1181
102
{ACAD_REACTORS
330
1180
102
}
330
1180
100
AcDbXrecord
280
     1
102
DISPLAYNAME
  1
Metric50
102
FLAGS
 90
        0
  0
CELLSTYLEMAP
  5
117F
102
{ACAD_REACTORS
330
7FE
102
}
330
7FE
100
AcDbCellStyleMap
 90
        3
300
CELLSTYLE
  1
TABLEFORMAT_BEGIN
 90
        5
170
     1
 91
        0
 92
    32768
 62
   257
 93
        1
300
CONTENTFORMAT
  1
CONTENTFORMAT_BEGIN
 90
        0
 91
        0
 92
      512
 93
        0
300

 40
0.0
140
1.0
 94
        5
 62
     0
340
11
144
0.5
309
CONTENTFORMAT_END
171
     1
301
MARGIN
  1
CELLMARGIN_BEGIN
 40
0.06
 40
0.06
 40
0.06
 40
0.06
 40
0.18
 40
0.18
309
CELLMARGIN_END
 94
        6
 95
        1
302
GRIDFORMAT
  1
GRIDFORMAT_BEGIN
 90
        0
 91
        1
 62
     0
 92
       -2
340
0
 93
        0
 40
0.045
309
GRIDFORMAT_END
 95
        2
302
GRIDFORMAT
  1
GRIDFORMAT_BEGIN
 90
        0
 91
        1
 62
     0
 92
       -2
340
0
 93
        1
 40
0.045
309
GRIDFORMAT_END
 95
        4
302
GRIDFORMAT
  1
GRIDFORMAT_BEGIN
 90
        0
 91
        1
 62
     0
 92
       -2
340
0
 93
        0
 40
0.045
309
GRIDFORMAT_END
 95
        8
302
GRIDFORMAT
  1
GRIDFORMAT_BEGIN
 90
        0
 91
        1
 62
     0
 92
       -2
340
0
 93
        0
 40
0.045
309
GRIDFORMAT_END
 95
       16
302
GRIDFORMAT
  1
GRIDFORMAT_BEGIN
 90
        0
 91
        1
 62
     0
 92
       -2
340
0
 93
        1
 40
0.045
309
GRIDFORMAT_END
 95
       32
302
GRIDFORMAT
  1
GRIDFORMAT_BEGIN
 90
        0
 91
        1
 62
     0
 92
       -2
340
0
 93
        0
 40
0.045
309
GRIDFORMAT_END
309
TABLEFORMAT_END
  1
CELLSTYLE_BEGIN
 90
        1
 91
        1
300
_TITLE
309
CELLSTYLE_END
300
CELLSTYLE
  1
TABLEFORMAT_BEGIN
 90
        5
170
     1
 91
        0
 92
        0
 62
   257
 93
        1
300
CONTENTFORMAT
  1
CONTENTFORMAT_BEGIN
 90
        0
 91
        0
 92
      512
 93
        0
300

 40
0.0
140
1.0
 94
        4
 62
     0
340
11
144
0.4
309
CONTENTFORMAT_END
171
     1
301
MARGIN
  1
CELLMARGIN_BEGIN
 40
0.06
 40
0.06
 40
0.06
 40
0.06
 40
0.18
 40
0.18
309
CELLMARGIN_END
 94
        6
 95
        1
302
GRIDFORMAT
  1
GRIDFORMAT_BEGIN
 90
        0
 91
        1
 62
     0
 92
       -2
340
0
 93
        0
 40
0.045
309
GRIDFORMAT_END
 95
        2
302
GRIDFORMAT
  1
GRIDFORMAT_BEGIN
 90
        0
 91
        1
 62
     0
 92
       -2
340
0
 93
        1
 40
0.045
309
GRIDFORMAT_END
 95
        4
302
GRIDFORMAT
  1
GRIDFORMAT_BEGIN
 90
        0
 91
        1
 62
     0
 92
       -2
340
0
 93
        0
 40
0.045
309
GRIDFORMAT_END
 95
        8
302
GRIDFORMAT
  1
GRIDFORMAT_BEGIN
 90
        0
 91
        1
 62
     0
 92
       -2
340
0
 93
        0
 40
0.045
309
GRIDFORMAT_END
 95
       16
302
GRIDFORMAT
  1
GRIDFORMAT_BEGIN
 90
        0
 91
        1
 62
     0
 92
       -2
340
0
 93
        1
 40
0.045
309
GRIDFORMAT_END
 95
       32
302
GRIDFORMAT
  1
GRIDFORMAT_BEGIN
 90
        0
 91
        1
 62
     0
 92
       -2
340
0
 93
        0
 40
0.045
309
GRIDFORMAT_END
309
TABLEFORMAT_END
  1
CELLSTYLE_BEGIN
 90
        2
 91
        1
300
_HEADER
309
CELLSTYLE_END
300
CELLSTYLE
  1
TABLEFORMAT_BEGIN
 90
        5
170
     1
 91
        0
 92
        0
 62
   257
 93
        1
300
CONTENTFORMAT
  1
CONTENTFORMAT_BEGIN
 90
        0
 91
        0
 92
      512
 93
        0
300

 40
0.0
140
1.0
 94
        4
 62
     0
340
11
144
0.4
309
CONTENTFORMAT_END
171
     1
301
MARGIN
  1
CELLMARGIN_BEGIN
 40
0.06
 40
0.06
 40
0.06
 40
0.06
 40
0.18
 40
0.18
309
CELLMARGIN_END
 94
        6
 95
        1
302
GRIDFORMAT
  1
GRIDFORMAT_BEGIN
 90
        0
 91
        1
 62
     0
 92
       -2
340
0
 93
        1
 40
0.045
309
GRIDFORMAT_END
 95
        2
302
GRIDFORMAT
  1
GRIDFORMAT_BEGIN
 90
        0
 91
        1
 62
     0
 92
       -2
340
0
 93
        1
 40
0.045
309
GRIDFORMAT_END
 95
        4
302
GRIDFORMAT
  1
GRIDFORMAT_BEGIN
 90
        0
 91
        1
 62
     0
 92
       -2
340
0
 93
        0
 40
0.045
309
GRIDFORMAT_END
 95
        8
302
GRIDFORMAT
  1
GRIDFORMAT_BEGIN
 90
        0
 91
        1
 62
     0
 92
       -2
340
0
 93
        0
 40
0.045
309
GRIDFORMAT_END
 95
       16
302
GRIDFORMAT
  1
GRIDFORMAT_BEGIN
 90
        0
 91
        1
 62
     0
 92
       -2
340
0
 93
        1
 40
0.045
309
GRIDFORMAT_END
 95
       32
302
GRIDFORMAT
  1
GRIDFORMAT_BEGIN
 90
        0
 91
        1
 62
     0
 92
       -2
340
0
 93
        0
 40
0.045
309
GRIDFORMAT_END
309
TABLEFORMAT_END
  1
CELLSTYLE_BEGIN
 90
        3
 91
        2
300
_DATA
309
CELLSTYLE_END
  0
CELLSTYLEMAP
  5
117E
102
{ACAD_REACTORS
330
7FC
102
}
330
7FC
100
AcDbCellStyleMap
 90
        3
300
CELLSTYLE
  1
TABLEFORMAT_BEGIN
 90
        5
170
     1
 91
        0
 92
    32768
 62
   257
 93
        1
300
CONTENTFORMAT
  1
CONTENTFORMAT_BEGIN
 90
        0
 91
        0
 92
      512
 93
        0
300

 40
0.0
140
1.0
 94
        5
 62
     0
340
11
144
6.0
309
CONTENTFORMAT_END
171
     1
301
MARGIN
  1
CELLMARGIN_BEGIN
 40
1.5
 40
1.5
 40
1.5
 40
1.5
 40
0.18
 40
0.18
309
CELLMARGIN_END
 94
        6
 95
        1
302
GRIDFORMAT
  1
GRIDFORMAT_BEGIN
 90
        0
 91
        1
 62
     0
 92
       -2
340
0
 93
        0
 40
0.045
309
GRIDFORMAT_END
 95
        2
302
GRIDFORMAT
  1
GRIDFORMAT_BEGIN
 90
        0
 91
        1
 62
     0
 92
       -2
340
0
 93
        0
 40
0.045
309
GRIDFORMAT_END
 95
        4
302
GRIDFORMAT
  1
GRIDFORMAT_BEGIN
 90
        0
 91
        1
 62
     0
 92
       -2
340
0
 93
        0
 40
0.045
309
GRIDFORMAT_END
 95
        8
302
GRIDFORMAT
  1
GRIDFORMAT_BEGIN
 90
        0
 91
        1
 62
     0
 92
       -2
340
0
 93
        0
 40
0.045
309
GRIDFORMAT_END
 95
       16
302
GRIDFORMAT
  1
GRIDFORMAT_BEGIN
 90
        0
 91
        1
 62
     0
 92
       -2
340
0
 93
        0
 40
0.045
309
GRIDFORMAT_END
 95
       32
302
GRIDFORMAT
  1
GRIDFORMAT_BEGIN
 90
        0
 91
        1
 62
     0
 92
       -2
340
0
 93
        0
 40
0.045
309
GRIDFORMAT_END
309
TABLEFORMAT_END
  1
CELLSTYLE_BEGIN
 90
        1
 91
        1
300
_TITLE
309
CELLSTYLE_END
300
CELLSTYLE
  1
TABLEFORMAT_BEGIN
 90
        5
170
     1
 91
        0
 92
        0
 62
   257
 93
        1
300
CONTENTFORMAT
  1
CONTENTFORMAT_BEGIN
 90
        0
 91
        0
 92
      512
 93
        0
300

 40
0.0
140
1.0
 94
        5
 62
     0
340
11
144
4.5
309
CONTENTFORMAT_END
171
     1
301
MARGIN
  1
CELLMARGIN_BEGIN
 40
1.5
 40
1.5
 40
1.5
 40
1.5
 40
0.18
 40
0.18
309
CELLMARGIN_END
 94
        6
 95
        1
302
GRIDFORMAT
  1
GRIDFORMAT_BEGIN
 90
        0
 91
        1
 62
     0
 92
       -2
340
0
 93
        0
 40
0.045
309
GRIDFORMAT_END
 95
        2
302
GRIDFORMAT
  1
GRIDFORMAT_BEGIN
 90
        0
 91
        1
 62
     0
 92
       -2
340
0
 93
        0
 40
0.045
309
GRIDFORMAT_END
 95
        4
302
GRIDFORMAT
  1
GRIDFORMAT_BEGIN
 90
        0
 91
        1
 62
     0
 92
       -2
340
0
 93
        0
 40
0.045
309
GRIDFORMAT_END
 95
        8
302
GRIDFORMAT
  1
GRIDFORMAT_BEGIN
 90
        0
 91
        1
 62
     0
 92
       -2
340
0
 93
        0
 40
0.045
309
GRIDFORMAT_END
 95
       16
302
GRIDFORMAT
  1
GRIDFORMAT_BEGIN
 90
        0
 91
        1
 62
     0
 92
       -2
340
0
 93
        0
 40
0.045
309
GRIDFORMAT_END
 95
       32
302
GRIDFORMAT
  1
GRIDFORMAT_BEGIN
 90
        0
 91
        1
 62
     0
 92
       -2
340
0
 93
        0
 40
0.045
309
GRIDFORMAT_END
309
TABLEFORMAT_END
  1
CELLSTYLE_BEGIN
 90
        2
 91
        1
300
_HEADER
309
CELLSTYLE_END
300
CELLSTYLE
  1
TABLEFORMAT_BEGIN
 90
        5
170
     1
 91
        0
 92
        0
 62
   257
 93
        1
300
CONTENTFORMAT
  1
CONTENTFORMAT_BEGIN
 90
        0
 91
        0
 92
      512
 93
        0
300

 40
0.0
140
1.0
 94
        2
 62
     0
340
11
144
4.5
309
CONTENTFORMAT_END
171
     1
301
MARGIN
  1
CELLMARGIN_BEGIN
 40
1.5
 40
1.5
 40
1.5
 40
1.5
 40
0.18
 40
0.18
309
CELLMARGIN_END
 94
        6
 95
        1
302
GRIDFORMAT
  1
GRIDFORMAT_BEGIN
 90
        0
 91
        1
 62
     0
 92
       -2
340
0
 93
        0
 40
0.045
309
GRIDFORMAT_END
 95
        2
302
GRIDFORMAT
  1
GRIDFORMAT_BEGIN
 90
        0
 91
        1
 62
     0
 92
       -2
340
0
 93
        0
 40
0.045
309
GRIDFORMAT_END
 95
        4
302
GRIDFORMAT
  1
GRIDFORMAT_BEGIN
 90
        0
 91
        1
 62
     0
 92
       -2
340
0
 93
        0
 40
0.045
309
GRIDFORMAT_END
 95
        8
302
GRIDFORMAT
  1
GRIDFORMAT_BEGIN
 90
        0
 91
        1
 62
     0
 92
       -2
340
0
 93
        0
 40
0.045
309
GRIDFORMAT_END
 95
       16
302
GRIDFORMAT
  1
GRIDFORMAT_BEGIN
 90
        0
 91
        1
 62
     0
 92
       -2
340
0
 93
        0
 40
0.045
309
GRIDFORMAT_END
 95
       32
302
GRIDFORMAT
  1
GRIDFORMAT_BEGIN
 90
        0
 91
        1
 62
     0
 92
       -2
340
0
 93
        0
 40
0.045
309
GRIDFORMAT_END
309
TABLEFORMAT_END
  1
CELLSTYLE_BEGIN
 90
        3
 91
        2
300
_DATA
309
CELLSTYLE_END
  0
ACAD_PROXY_OBJECT
  5
5B6
102
{ACAD_XDICTIONARY
360
5BA
102
}
102
{ACAD_REACTORS
330
5B4
102
}
330
5B4
100
AcDbProxyObject
 90
      499
 91
      513
 95
   983063
 70
     0
161
               258
310
4050C4B617274656E626173697300405019029013FFFFFFFFFFFFBDFE80D01404C
330
5B4
360
5B9
 94
        0
1001
ACAD
1000
AcRTDxfName
1000
DMBASEELEMENT
1000
AcRTDxfName
1000
DMBASEELEMENT
  0
ACAD_PROXY_OBJECT
  5
5B7
102
{ACAD_REACTORS
330
5B4
102
}
330
5B4
100
AcDbProxyObject
 90
      499
 91
      514
 95
   983063
 70
     0
161
               114
310
4050142159BDC99D8589940101648C
 94
        0
1001
AcMapDMDisplayStyleRegapp
1070
     2
1071
        1
1000
Vorgabe
1000

1001
ACAD
1000
AcRTDxfName
1000
DMDEFAULTSTYLE
1000
AcRTDxfName
1000
DMDEFAULTSTYLE
  0
DICTIONARY
  5
5BA
330
5B6
100
AcDbDictionary
280
     1
281
     1
  3
AcMapDMSurrogateStyleSets
360
5BB
  0
ACAD_PROXY_OBJECT
  5
5B9
330
5B6
100
AcDbProxyObject
 90
      499
 91
      515
 95
   983063
 70
     0
161
                11
310
404C
340
5B7
330
5B4
 94
        0
1001
ACAD
1000
AcRTDxfName
1000
DMSTYLEREFERENCE
1000
AcRTDxfName
1000
DMSTYLEREFERENCE
  0
ACAD_PROXY_OBJECT
  5
5BB
102
{ACAD_REACTORS
330
5BA
102
}
330
5BA
100
AcDbProxyObject
 90
      499
 91
      516
 95
   983063
 70
     0
161
               216
310
4050C4B617274656E626173697300404FFFFFFFFFFFFEF7FA0340626
330
5B9
 94
        0
1001
ACAD
1000
AcRTDxfName
1000
DMSURROGATESTYLESETS
1000
AcRTDxfName
1000
DMSURROGATESTYLESETS
  0
ENDSEC
  0
SECTION
  2
ACDSDATA
 70
     2
 71
     8
  0
ACDSSCHEMA
 90
        0
  1
AcDb_Thumbnail_Schema
  2
AcDbDs::ID
280
    10
 91
        8
  2
Thumbnail_Data
280
    15
 91
        0
101
ACDSRECORD
 95
        0
 90
        1
  2
AcDbDs::TreatedAsObjectData
280
     1
291
     1
101
ACDSRECORD
 95
        0
 90
        2
  2
AcDbDs::Legacy
280
     1
291
     1
101
ACDSRECORD
  1
AcDbDs::ID
 90
        3
  2
AcDs:Indexable
280
     1
291
     1
101
ACDSRECORD
  1
AcDbDs::ID
 90
        4
  2
AcDbDs::HandleAttribute
280
     7
282
     1
  0
ACDSSCHEMA
 90
        1
  1
AcDbDs::TreatedAsObjectDataSchema
  2
AcDbDs::TreatedAsObjectData
280
     1
 91
        0
  0
ACDSSCHEMA
 90
        2
  1
AcDbDs::LegacySchema
  2
AcDbDs::Legacy
280
     1
 91
        0
  0
ACDSSCHEMA
 90
        3
  1
AcDbDs::IndexedPropertySchema
  2
AcDs:Indexable
280
     1
 91
        0
  0
ACDSSCHEMA
 90
        4
  1
AcDbDs::HandleAttributeSchema
  2
AcDbDs::HandleAttribute
280
     7
 91
        1
284
     1
  0
ACDSRECORD
 90
        0
  2
AcDbDs::ID
280
    10
320
51
  2
Thumbnail_Data
280
    15
 94
     1319
310
89504E470D0A1A0A0000000D494844520000006C0000008C0803000000AEFCBC7D00000300504C5445FFFFFF000000FFFFFF0000000000000000000000000000000000000000000000000000330000660000990000CC0000FF0033000033330033660033990033CC0033FF0066000066330066660066990066CC0066FF0099
310
000099330099660099990099CC0099FF00CC0000CC3300CC6600CC9900CCCC00CCFF00FF0000FF3300FF6600FF9900FFCC00FFFF3300003300333300663300993300CC3300FF3333003333333333663333993333CC3333FF3366003366333366663366993366CC3366FF3399003399333399663399993399CC3399FF33CC00
310
33CC3333CC6633CC9933CCCC33CCFF33FF0033FF3333FF6633FF9933FFCC33FFFF6600006600336600666600996600CC6600FF6633006633336633666633996633CC6633FF6666006666336666666666996666CC6666FF6699006699336699666699996699CC6699FF66CC0066CC3366CC6666CC9966CCCC66CCFF66FF0066
310
FF3366FF6666FF9966FFCC66FFFF9900009900339900669900999900CC9900FF9933009933339933669933999933CC9933FF9966009966339966669966999966CC9966FF9999009999339999669999999999CC9999FF99CC0099CC3399CC6699CC9999CCCC99CCFF99FF0099FF3399FF6699FF9999FFCC99FFFFCC0000CC00
310
33CC0066CC0099CC00CCCC00FFCC3300CC3333CC3366CC3399CC33CCCC33FFCC6600CC6633CC6666CC6699CC66CCCC66FFCC9900CC9933CC9966CC9999CC99CCCC99FFCCCC00CCCC33CCCC66CCCC99CCCCCCCCCCFFCCFF00CCFF33CCFF66CCFF99CCFFCCCCFFFFFF0000FF0033FF0066FF0099FF00CCFF00FFFF3300FF3333
310
FF3366FF3399FF33CCFF33FFFF6600FF6633FF6666FF6699FF66CCFF66FFFF9900FF9933FF9966FF9999FF99CCFF99FFFFCC00FFCC33FFCC66FFCC99FFCCCCFFCCFFFFFF00FFFF33FFFF66FFFF99FFFFCCFFFFFF0000000D0D0D1A1A1A2828283535354343435050505D5D5D6B6B6B787878868686939393A1A1A1AEAEAEBB
310
BBBBC9C9C9D6D6D6E4E4E4F1F1F1FFFFFF000000000000000000000000000000000000000000000000000000000000790CAC0F000001E24944415468DEED9A4B9283300C447321EE7F9FBE4056EC3314093060818DA4F6076B4580E4B91D95DC16BCDE18A71846BFF8FBED19F26A1B0660C014CB75EC427561F89D99610C65
310
1DD6610F87F5DA582B0C4E21C28EC4C8D1AFF7EEBF85FCCA5AFCCFB0A19B0782E5EA6C704C98C53486614BF24238D8E85D5463157238911F76727FF4950EEBB00A61CC0A42F58D66A5371E46554672C4CEB0A7F8C63294A5F8D4D0FD024CE9A384113606BBDC585013C45898D028B35126A563B83652618D2F9EE6B3E8A34C
310
4A474159CDB0F3FD593D5D3971B05E095226AC7DFBADCBFCC007B70A329605CBE2415C2B88AD2316BDAD8BFD96B2B9195879BB181B6187D6BBDF344628735862AECA5537A957997F70AC5E562E45996582B4EA411294DD5A4C705E88EF2A1386238D363BEC46E348F594895A41B41BDA1418B536D20BB17B8214DD904E5C8C
310
2A7257895DE467B6DAEFEE5790E2F593CA557AD5AF05A67E1FA4CC426CB0C464B0DFE47652ABBB184582A43CB1C8D202347D114A0F337C15EA1A29C89566A12298CB7F46CD46C75D8CBAFD96968DD1B0ABC3FFA7C3F6DB1536ADD460C2DE5C18F4F63BDEF0606B52CB54A68451955160232F4150982DF07C69D9DCA99604B3
310
5DAB33C186393038C65E1946D7F8C2408BB58250820B0331A6AA4F8B0F7AEC5E1F63A2B82D0000000049454E44AE426082
  0
ACDSRECORD
 90
        0
  2
AcDbDs::ID
280
    10
320
22
  2
Thumbnail_Data
280
    15
 94
     2011
310
89504E470D0A1A0A0000000D4948445200000100000000DD0803000000637B5C1100000300504C5445000000000000FFFFFF0000000000000000000000000000000000000000000000000000330000660000990000CC0000FF0033000033330033660033990033CC0033FF0066000066330066660066990066CC0066FF0099
310
000099330099660099990099CC0099FF00CC0000CC3300CC6600CC9900CCCC00CCFF00FF0000FF3300FF6600FF9900FFCC00FFFF3300003300333300663300993300CC3300FF3333003333333333663333993333CC3333FF3366003366333366663366993366CC3366FF3399003399333399663399993399CC3399FF33CC00
310
33CC3333CC6633CC9933CCCC33CCFF33FF0033FF3333FF6633FF9933FFCC33FFFF6600006600336600666600996600CC6600FF6633006633336633666633996633CC6633FF6666006666336666666666996666CC6666FF6699006699336699666699996699CC6699FF66CC0066CC3366CC6666CC9966CCCC66CCFF66FF0066
310
FF3366FF6666FF9966FFCC66FFFF9900009900339900669900999900CC9900FF9933009933339933669933999933CC9933FF9966009966339966669966999966CC9966FF9999009999339999669999999999CC9999FF99CC0099CC3399CC6699CC9999CCCC99CCFF99FF0099FF3399FF6699FF9999FFCC99FFFFCC0000CC00
310
33CC0066CC0099CC00CCCC00FFCC3300CC3333CC3366CC3399CC33CCCC33FFCC6600CC6633CC6666CC6699CC66CCCC66FFCC9900CC9933CC9966CC9999CC99CCCC99FFCCCC00CCCC33CCCC66CCCC99CCCCCCCCCCFFCCFF00CCFF33CCFF66CCFF99CCFFCCCCFFFFFF0000FF0033FF0066FF0099FF00CCFF00FFFF3300FF3333
310
FF3366FF3399FF33CCFF33FFFF6600FF6633FF6666FF6699FF66CCFF66FFFF9900FF9933FF9966FF9999FF99CCFF99FFFFCC00FFCC33FFCC66FFCC99FFCCCCFFCCFFFFFF00FFFF33FFFF66FFFF99FFFFCCFFFFFF0000000D0D0D1A1A1A2828283535354343435050505D5D5D6B6B6B787878868686939393A1A1A1AEAEAEBB
310
BBBBC9C9C9D6D6D6E4E4E4F1F1F1FFFFFF000000000000000000000000000000000000000000000000000000000000C11FEF66000004964944415478DAED9D6D72EA300C45D9D0DBFF7EB407FDEF9B09C857B6A169C2406C9F74064C48427D22D957FECACD16DF6ECB0370B7ED6FE4EDFF7FEF5B467C4B6CDBF66EB6256C4B
310
7B6301BE5D610E00919D92DEBED9E8B4399D0880DD337AA711AF770BB87FF6295DC0BC644ECCBEEC2F16402108000000000000E85483518DC6C7652C20D4C2BD1EB59206002E402108000000000093D7026B6F580000962F034C1B135383F238B988566193FF3EB2227BAD69175700D17E5CDA94C70390429BB695B4C9D6CD
310
BCB20069421E0B80A5C6608B9B5D1A877B1D03B76832F6FC3E563CD86B168F6E22B9B9148200000000000000000020B70734F2C8D35BBBC7558098C9F002AFCFB08EFABC9C05F86E00F5A7869D3F53AA1777018D951E61942A6A0FA56D2950F06407310AC5CBB0945A9A5F2EC6501770092C4C622A1D7C54050A5E1D2A27CB
310
17E5427E6117908145654095EB28AB32DEAC72768944E4E444362EE45705E0E98E571F920548A1215651594A1D967BAF64B9920B14B78FD7E2BAD157E85A5C840BB878BB9E5C1CBF8CD8BBA405208486DFE817C00500F06E008F6A6ECF4891688B7C8F3F1F2C03EE42D39E8D8A3E0460DF65BC1B167C1440B4874B55BD1740
310
D4CE92D030CF3B2A5EB47EBC5954F6A2FC445DEA08F698B9D0FEE621436A01F87E0BA824A067F1D6EF2B6AB46334C75B4F55F6922F7EF3900B883C8DB913EF0390275DF401B41690A28C3AE9BAD752B7DC870BC17D1660BF5AC0EBBBDB4B5ADD89771100DD32A00E015DE7E4482DE069724A7DAF9B4221975BDF0899BFA103
310
2ED5EFF8152174A59010250800005485929F53A5C301F0A78DFE4B0188FA5765BAE5867EADCD4B101003AFE4652C17F0577ACD54A6D9F3EFAB97B1CA00EFEB3515EF7A736B00C2C707F49B0220DD61AB42C0A781DC0C16D0E919CAC6903B0AAB2060FC32600A45FF15217421454FBF0052180000581AC09942708A99C27EFC
310
ACDB14353A004E00C005A62804010000000000000000004208290C005C8042100000000000000080FD3AC067585DFE5CBF804C0AB431179B3FA9043D4D7F1FD120CE4A615B1C40BD94D6802EF018A5FFA7595333D50265EDAC3FCC9A9A1B802F66015ECDDFB2C500A004010080E33A60790B7097E774F9904DA4272D402A4D
310
1FB391FCA405C818F73501ACED02548300000000000000000C0E8049538737000000008B03E0515BB8000000B07821286B0196E5E3A2AF59964F9F72599D5B5E18DE6375756D1D7CAC1532E4D8819D1610EB8448C2F253E77C4A33B845D65E58C03DFF3E2F00D7122016927559ECB32A23A80500000000CC520D3EEAF8F28C
310
5259E0B65484930BA1BC385AD4002A85F2BE9432D323BDFAD48828BD723AB4B9F6C700781A5EE7E5D14A1D31EC6D2A2DBB2C4F9931CBDDEE4D277C7D6273EDCB588035CBE879CED53100F5A1DF00909E212559AFA5D063CF7C2EF0CE2D3D66A27AE050E7885FF6520D0200001F00F06FF10D0B000000000000000000000000
310
C0AA001822830B0000000000000000000000000000000000000000000000000000000000000000000000000000000000000000000000000000000000000000000000000000000000000000000000000000008049B61F801643104DDB348A0000000049454E44AE426082
  0
ENDSEC
  0
EOF
